PrimaNota.ru - самый крупный в мире бесплатный архив песенных текстов, аккордов, табулатур и нот


Bash And Pop - Friday Night Is Killing Me - таба, видео

Регистрация Запомнить меня
Войти через:  Facebook Google Twitter Vk Yandex Mail.ru

Bash And Pop - Friday Night Is Killing Me - таба, видео

Печатать
Просмотров: 78
www.myspace.com/bashandpop

-----------------------------------------------------------------------------
                 Friday Night is Killing Me - Bash & Pop
-----------------------------------------------------------------------------
Tabbed by: Michael I.
email:motomyke@rocketmail.com

tuning: e minor


ok this tab was a pain in the ass but its done. a few notes: firstly this is 
my version of the song but its 90% accurate to the original. secondly, this 
is a three guitar song so i condensed both  rhythm guitars into one and the 
lead guitar just plays licks, so basically the rhythm is the main part of 
the song, with the lead guitar refered to as licks a thru f. so learn the 
rythm first and then learn the licks, dropping whichever ones break rythm if 
ur playin solo. its tuned down half a step but if u wanna play it the 
acoustic or coffee shop version tune ur guitar to d. feel free to tell me 
ive f-ed up, but lyk i said this is my version.lastly thanx for takin the 
tyme to learn a bad ass song by an underappreciated band. good luck with it.

 michael i.



Intro
                                *lick-a enters here
eb------------3~-3--|---------------------|-------------3~-5-3------------|
Bb------------3~-3--|-------------1~-3-1--|-------------3~-3-3------------|
Gb------------0~-0--|-------------0~-0-0--|-------------0~-0-0------------|
Db------3-----0~-0--|-----3-------2~-2-2--|------3------0~-0-0------------|
Ab----3-----5-3~----|---3-----5---3~-3-3--|----3-----5--------------------|
Eb--5-----3---2~----|-5-----3-------------|--5-----3----------------------|


eb-----------------------|---------------------|
Bb------------1---3-1-3--|------------1~-3-1---|
Gb------------0---0-0-0--|------------0~-0-0---|
Db------3-----2---2-2-2--|------3-----2~-2-2---|
Ab----3-----5-3---3-3-3--|----3-----5-3~-3-3---|
Eb--5-----3--------------|--5-----3------------|




lick-a

eb|-----12b13r12-(bend 4x)--\15-|-------------------------------|
Bb|--10-------------------------|-----5p4p3-3p2p1-5p4p3-4p3~----|
Gb|-----------------------------|--5~---------------------------|
Db|-----------------------------|-------------------------------|
Ab|-----------------------------|-------------------------------|
Eb|-----------------------------|-------------------------------|

eb|------8-12~----8~-12b13r12 (bend 4x)12~---|
Bb|---10-------10----------------------------|
Gb|------------------------------------------|
Db|------------------------------------------|
Ab|------------------------------------------|
Eb|------------------------------------------|






Verse 1


eb|---------3-------------|--------3---3~------------------|
Bb|---------3-3-1~---1-1--|--------3-3-3~--1~--3-1-3-------|
Gb|-------------0~---0-0--|------------0~--0~--0-0-0-------|
Db|-------------2~---2-2--|------------0~--2~--2-2-2-------|
Ab|--0-3-0------3~---3-2--|--0-3-0-----2~--3~--3-3-3-------|
Eb|-----------------------|------------3~------------------|




                                   *lick b begins here
eb|-----3-------------------------|-----------3~-3---------------------|
Bb|-----3-3--1-------------1~-3-1-|-----------3~-3------------1~-3-1---|
Gb|----------0-------------0~-0-0-|-----------0~-0------------0~-0-0---|
Db|----------2-X-----3-----2~-2-2-|-----3-----0~-0------3-----2~-2-2---|
Ab|0-3-0-----3-X---3-----5-3~-3-3-|---3-----5-2~-2----3-----5-3~-3-3---|
Eb|--------------5-----3----------|-5-----3---3~-3--5-----3------------|

                   * lick c begins here
eb|-------3--------------------|---------3----3-------------------------|
Bb|-------3-3-1---1-1---3-1-3--|---------3-3--3---1~--3-1-3-------------|
Gb|-----------0---0-0---0-0-0--|--------------0---0~--0-0-0-------------|
Db|-----------2---2-2-2-2-2-2--|--------------0---2~--2-2-2-------------|
Ab|0-3-0------3----------------|--0-3-0-----------3~--3-3-3-------------|
Eb|----------------------------|----------------------------------------|


eb|---------3----3--------------|
Bb|---------3-3--3--1--3-1-3----|
Gb|--------------0--0--0-0-0----|
Db|-----------------2--2-2-2----|
Ab|--0-3-0----------3--3-3-3----|
Eb|-----------------------------|




lick b


eb|-----8--12~-------|
Bb|--10--------10~---|
Gb|------------------|
Db|------------------|
Ab|------------------|
Eb|------------------|


eb|-----12b13r12-(bend 4x)--\15-|-------------------------------|
Bb|--10-------------------------|-----5p4p3-4p3p2-5p4p3-5p3~----|
Gb|-----------------------------|--5~---------------------------|
Db|-----------------------------|-------------------------------|
Ab|-----------------------------|-------------------------------|
Eb|-----------------------------|-------------------------------|



lick-c

eb|----------------------3~-----|-------------------------------------|
Bb|--5p4p3-4p3p2-3p2p1-1---3b4--|---5p4p3-4p3p2-3p2p1-1--3h5p3--------|
Gb|-----------------------------|------------------------------3b4----|
Db|-----------------------------|-------------------------------------|
Ab|-----------------------------|-------------------------------------|
Eb|-----------------------------|-------------------------------------|

eb|-----8-10b11-10-8~-10b11~-10p8~-----|
Ab|--10--------------------------------|
Gb|------------------------------------|
Db|------------------------------------|
Bb|------------------------------------|
Eb|------------------------------------|





Pre-chorus

   *lick d plays along side prechorus
eb|--8-\5----------8---\0------|--8-8---5-5---3-3---1-1-----------|
Bb|--8-\5--8-------8---\0------|--8-8---5-5---5-5---1-1-----------|
Gb|--9-----7-------9--------5--|--9-9---5-5-----------------------|
Db|--------9----------------5--|----------------------------------|
Ab|--------10---------------3--|----------------------------------|
Eb|----------------------------|----------------------------------|


lick d

eb|~8\3/5\3--8------------------------|
Bb|-------------3\5/1-----------------|
Gb|-------------------0h2p0-----------|
Db|-----------------------------------|
Ab|-----------------------------------|
Eb|-----------------------------------|




Chorus
     
     *lick e starts here
eb|----|-------------------|--------------------------|
Bb|--1-|------------1-3-1--|-repeat previous measure--|
Gb|--0-|------------0-0-0--|-two more tymes-----------|
Db|--X-|------3-----X-2-2--|--------------------------|
Ab|--3-|----3-----5-3------|--------------------------|
Eb|----|--5-----3----------|--------------------------|


eb|-------------3--5-3--|--------------------------|
Bb|-------------3--3-3--|-repeat that wacky fun----|
Gb|-------------0-------|-loving measure up there--|
Db|------3------0-------|-two more magical-tymes---|
Ab|----3-----5----------|--------------------------|
Eb|--5-----3------------|--------------------------|


eb|-------------------|------------3-5-3--|----------------------------|
Bb|------------1-3-1--|------------3-3-3--|--1-3---3---note:-this last |
Gb|------------0-0-0--|------------0---0--|--0-0-0-0---measure is only-|
Db|------3-----2------|------3-----0---0--|--2-2-2-2---on this chorus--|
Ab|----3-----5-3------|----3-----5--------|--3-3-3-3-------------------|
Eb|--5-----3----------|--5-----3----------|----------------------------|





lick e
eb|--2\8/2-|------|
Bb|--------|3\5/3-|
Gb|--------|------|
Db|--------|------|
Ab|--------|------|
Eb|--------|------|

eb|-----8--12~-------|
Bb|--10--------10~---|
Gb|------------------|
Db|------------------|
Ab|------------------|
Eb|------------------|

                           * simple bend variations on this 15
eb|-----12b13r12-(bend 4x)--\15-|-------------------------------|
Bb|--10-------------------------|-----5p4p3-4p3p2-5p4p3-5p3~----|
Gb|-----------------------------|--5~---------------------------|
Db|-----------------------------|-------------------------------|
Ab|-----------------------------|-------------------------------|
Eb|-----------------------------|-------------------------------|

eb|-----8--12~-------|
Bb|--10--------10~---|
Gb|------------------|
Db|------------------|
Ab|------------------|
Eb|------------------|

                           *simple bend variations on this 15
eb|-----12b13r12-(bend 4x)--\15-|-------------------------------|
Bb|--10-------------------------|-----5p4p3-4p3p2-5p4p3-5p3~----|
Gb|-----------------------------|--5~---------------------------|
Db|-----------------------------|-------------------------------|
Ab|-----------------------------|-------------------------------|
Eb|-----------------------------|-------------------------------|


pre-solo


eb|---------3-------------3-------1~-|-----------------------------------|
Bb|-----------3-------------3-----1~-|-----------------------------------|
Gb|--------------------5-------------|-----------------------------------|
Db|--0h3p0---------3h5---------------|--5  palm mute strum 16 tymes------|
Ab|----------------------------------|--3--------------------------------|
Eb|----------------------------------|-----------------------------------|

Rhythm guitar plays pre chorus during the solo

solo
eb|---|---------------------------3h5-5b6-3~----------------------------|
Bb|---|----------5h7p5--1~----1h3------------3b4r3---------3-1b2r1------|
Gb|---|-------2~~------------------------------------5p3h5--------------|
Db|---|---3-2~----------------------------------------------------------|
Ab|---|-----------------------------------------------------------------|
Eb|---|-----------------------------------------------------------------|

eb|--5\8\12/8--------------|
Bb|------------------------|
Gb|------------------------|
Db|------------------------|
Ab|------------------------|
Eb|------------------------|

verse 2
                 *lick f enters
eb|---------3----3~-------------------------------------------------------|
Bb|---------3-3--3~-------------------------------------------------------|
Gb|--------------0~-0----------------------3-----repeat this measure once-|
Db|-----------------2--5--7--5-5--7--5--7--3--5---------------------------|
Ab|--0-3-0----------3--3--3--3-3--3--3--3-----3---------------------------|
Eb|-----------------------------------------------------------------------|


eb|---------3----333-----------------------------------------------------|
Bb|---------3-3--333---111--3--1-1--3------this measure is repeated once |
Gb|--------------000---000--0--0-0--0------------------------------------|
Db|--------------000---222--2--2-2--2------------------------------------|
Ab|--0-3-0-------------333--3--3-3--3------------------------------------|
Eb|----------------------------------------------------------------------|


eb|------3---3~-------------|-----------------------------------------|
Bb|------3-3-3~--1~--3-1-3--|-----1---3-1-3---------------------------|
Gb|----------0~--0~--0-0-0--|-----0---0-0-0----then play pre chorus---|
Db|----------0~--2~--2-2-2--|-----2---2-2-2----then play chorus twice-|
Ab|0-3-0--------------------|-----3---3-3-3----till fade out----------|
Eb|-------------------------|-----------------------------------------|





lick f
eb|-\6-5\3/8-5-3-----3---------|----------------|-----------------|
Bb|--------------4h5---4~-5p4--|-6~--5~  3~--1~-|--4b5------------|
Gb|----------------------------|----------------|-----3h5---------|
Db|----------------------------|----------------|-----------------|
Ab|----------------------------|----------------|-----------------|
Eb|----------------------------|----------------|-----------------|


eb|-----3--------|---5b6-3-5---ok so the last fade out chorus has    |
Bb|-4b5---3b4r3--|-------------combonations and variants of the licks|
Gb|--------------|-------------a thru f, so listen to the song or ---|
Db|--------------|-------------make ur own order.--------------------|
Ab|--------------|---------------------------------------------------|
Eb|--------------|---------------------------------------------------|





Heres the basis to the bluesy fade out riff. 
eb|----------------------------------|
Bb|----------------------------------|
Gb|--------------------3-------------|
Db|-5-7--5-5-7--5-5-7--3--7----------|
Ab|-3-3--3-3-3--3-3-3-----5----------|
Eb|----------------------------------|

************************************

| /   slide up
| \   slide down
| h   hammer-on
| p   pull-off
| ~   vibrato
| +   harmonic
| x   Mute note
| b   Bend
| pb  Pre-bend
| br  Bend release
| pbr Pre-bend release
| brb Bend release bend

************************************
Добавлено: 08.10.2013
Другие материалы по этой песне:
  • Аккорды и текст

Страница создана 08.10.2013
http://primanota.ru/bash-and-pop/friday-night-is-killing-me-chords.htm
Привет, Гость.
Предлагаем пройти революционный курс по гитаре.
Подарок от PrimaNota.Ru, забирай!