PrimaNota.ru - самый крупный в мире бесплатный архив песенных текстов, аккордов, табулатур и нот


Basement - Skip Town - таба, видео

Регистрация Запомнить меня
Войти через:  Facebook Google Twitter Vk Yandex Mail.ru

Basement - Skip Town - таба, видео

Печатать
Просмотров: 234
Уроки эстрадного вокала в Санкт-Петербурге
Song: Skip Town
Band: Basement
Album: Songs About the Weather

TUNING: D#, G#, C#, F#, A#, D#

Figure strum patterns yourself.


Intro:

Guitar 1:
------------------|
------------------|
--4-----7---(4)---|
--4-----7----5----|
--2-----5----5----|
-------------3----|


Guitar 2:
-------------------|
-------------------|
--7-----14----11---|
-------------------|
-------------------|
-------------------|
on the 2nd and 4th times of playing this ^ bend the 11 to the 12th and back instead of strumming.


"This town is so cold. Even summer"
------------------------------------|
------------------------------------|
----------------4----------------4--|
----5-4-----5-4------5-4-----5-4----|
--2-------2--------2-------2--------|
------------------------------------|

"is not enough to make me feel like home"
Guitar 1:
-------------------|
-------------------|
--4----------(4)---|
--4-----2-----5----|
--2-----2-----5----|
--------0-----3----|

Guitar 2:
-------------|-----------------------|
-------------|-----------------------|
--9----5--4--|--4-14-12-11---7--9----|
-------------|-----------------------|
-------------|-----------------------|
-------------|-----------------------|


"I heard that you heard I said,
I would never leave. Well, I say, "We'll see."\
Guitar 1:
------------------|
------------------|
--4-----7---(4)---|
--4-----7----5----|
--2-----5----5----|
-------------3----|


Guitar 2:
-------------------|
-------------------|
--4-----14----11---|
-------------------|
-------------------|
-------------------|


fill:
---------------|
---------------|
---------------|
--5------5-----|
--5------5-----|
--3------3-----|


"Sometimes I feel like I'm sinking so far,
I won't see the light again"
---------------|-----------------|
---------------|-----------------|
---------4-----|--5--------------|
--5------4--2--|--5------3-------|
--5------2--2--|--3------3-------|
--3---------0--|---------1-------|


"I'll live but I won't die here."
Guitar 1:
-------------|
-------------|
----------5--|
--2---5---5--|
--2---5---3--|
--0---3------|

Guitar 2:
-------------|
-------------|
--16---------|
-----15------|
--------15---|
-------------|


Outro:
----------|
----------|
----4-----|
------5---|
--2-------|
----------|

http://www.myspace.com/basementuk
Добавлено: 14.05.2012
Другие материалы по этой песне:
  • Аккорды и текст

Страница создана 14.05.2012
http://primanota.ru/basement/skip-town-chords.htm
Привет, Гость.
Предлагаем пройти революционный курс по гитаре.
Подарок от PrimaNota.Ru, забирай!