PrimaNota.ru - самый крупный в мире бесплатный архив песенных текстов, аккордов, табулатур и нот


Basement - Oversized - таба, видео

Регистрация Запомнить меня
Войти через:  Facebook Google Twitter Vk Yandex Mail.ru

Basement - Oversized - таба, видео

Печатать
Просмотров: 150
Уроки эстрадного вокала в Санкт-Петербурге
-------------------------------------------------------------------------------
                             Oversized - Basement
-------------------------------------------------------------------------------
Tabbed by: Justin Keys (Tabbed by ear)
E-mail: jmkeys1@gmail.com

Tuning: half step down 

Intro (x2)
Verse (x4)
Chorus(x6)
Verse (x5)
Chorus(x8)
End

 Intro(Listen to the song to understand rhythm)
e|------------------|
B|------------------|
G|--4-4--4-4-/-9-9--|
D|------------------| x2 
A|--2-2--2-2-/-7-7--|
E|-------3-3-/-8-8--|

 Verse 
e|------------------|
B|------------------|
G|--4-4--4-4-/-9-9--|
D|------------------| (x4 the first time and x5 the second time)
A|--2-2--2-2-/-7-7--|
E|-------3-3-/-8-8--|

 Chorus(Listen carefully to the song)(Let the last chord ring out a bit at the end of the chorus) 
e|----------------------------------3----------|
B|------3-----/--------8-----------------------|
G|--------0------------------------------------|
D|---------------------------------------------| (x6 the first time and x8 the second time)
A|----2-------/------7--------------2----------|
E|--3---------/----8----------------3----------|

 End (Let this chord ring out)
e|--3----------------|
B|-------------------|
G|-------------------|
D|-------------------|
A|--2----------------|
E|--3----------------|

************************************

| /   slide up
| \   slide down
| h   hammer-on
| p   pull-off
| ~   vibrato
| +   harmonic
| x   Mute note
| b   Bend
| pb  Pre-bend
| br  Bend release
| pbr Pre-bend release
| brb Bend release bend

************************************
Добавлено: 29.02.2016
Другие материалы по этой песне:
  • Аккорды и текст

Страница создана 29.02.2016
http://primanota.ru/basement/oversized-chords.htm
Привет, Гость.
Предлагаем пройти революционный курс по гитаре.
Подарок от PrimaNota.Ru, забирай!