PrimaNota.ru - самый крупный в мире бесплатный архив песенных текстов, аккордов, табулатур и нот


Basement - March - таба, видео

Регистрация Запомнить меня
Войти через:  Facebook Google Twitter Vk Yandex Mail.ru

Basement - March - таба, видео

Печатать
Просмотров: 208
Уроки эстрадного вокала в Санкт-Петербурге
-----------------------------------------------------------------------------
                             MARCH - Basement
-----------------------------------------------------------------------------
Tabbed by: Mean Mr Mustard
Email: Gotchristo@comcast.net

Tuning: Half Step Down

Figured that I would continue with my Basement tabbing with my favorite song of the 
album, the closer Enjoy :)

   Intro
eb|-----------------------------|------------------------|
Bb|-----------------------------|------------------------|
Gb|----------------6--6-6-------|------------------------|
Db|--xx-2/4--7--4--7--7-7--7--7-|--2/4--7--4--2----------|
Ab|--xx------5--5--0--0-0--0--0-|-------5--5--0----------|
Eb|-----------------------------|------------------------|

eb|----------------------------|-------------------------|
Bb|------------------h---------|-------------------------|
Gb|----------6--6-6-7-6--------|-------------------------|
Db|-4--7--4--7--7-7-----7--7-7-|--2/4--7--4--2-----------|
Ab|-5--5--5--0--0-0-----0--0-0-|-------5--5--4-----------|
Eb|----------------------------|-------------------------|


   Intro with Band
eb|----------------------------|-------------------------|
Bb|----------------------------|-------------------------|
Gb|-------------6--6-6---------|-------------------------|
Db|--2/4--7--4--7--7-7--7--7-7-|--2/4--7--4--2-----------|
Ab|-------5--5--0--0-0--0--0-0-|-------5--5--0-----------|
Eb|----------------------------|-------------------------|
  |
eb|----------------------------|----------------------------|
Bb|----------------------------|----------------------------|
Gb|--7----7--x--2--2-2--2--2-2-|--7----7--x--2--2-2--2--2-2-|
Db|--7----7--x--2--2-2--2--2-2-|--7----7--x--2--2-2--2--2-2-|
Ab|--5----5--x--0--0-0--0--0-0-|--5----5--x--0--0-0--0--0-0-|
Eb|----------------------------|----------------------------|

eb|----------------------------|--------------------------|
Bb|------------------h---------|--------------------------|
Gb|----------6--6-6-7-6--------|--------------------------|
Db|-4--7--4--7--7-7-----7--7-7-|-2--2--2--2--2--2--2--2---|
Ab|-5--5--5--0--0-0-----0--0-0-|-4--4--4--4--3--3--3--3---|
Eb|----------------------------|--------------------------|
  |
eb|----------------------------|--------------------------|
Bb|----------------------------|--------------------------|
Gb|--7----7--x--2--2-2--2--2-2-|--------------------------|
Db|--7----7--x--2--2-2--2--2-2-|-4--4--4--4--3--3--3--3---|
Ab|--5----5--x--0--0-0--0--0-0-|-4--4--4--4--3--3--3--3---|
Eb|----------------------------|-2--2--2--2--1--1--1--1---|


Verse x4

eb|--------------------------------|
Bb|-2------------------------------|
Gb|-2------------------------------|
Db|-2--------------4------3--------|
Ab|-0--------------4------3--------|
Eb|----------------2------1--------|
*Only bass plays the first 2 times, guitar comes in on the 3rd time



Chorus (the same as the intro)



Verse x4

eb|-----------------------------------|
Bb|-2---------------------------------|
Gb|-2---------------------------------|
Db|-2----------------4-------3--------|
Ab|-0----------------4-------3--------|
Eb|------------------2-------1--------|
  |
eb|---9----9----9-----9---------7-----|
Bb|-10--10----10-10-------------------|
Gb|-----------------10--10-10/9---9/7-|
Db|-----------------------------------|
Ab|-----------------------------------|
Eb|-----------------------------------|
*Rhythm guitar plays all 4 times, lead comes in on the 3rd time



Chorus (the same as the intro)



Interlude/Outro x12

eb|----------5-----------0------------|
Bb|------5-----5-------2---2-----0-2--|
Gb|----6---6-----6-------------2------|
Db|-/7-------------7-4-------3--------|
Ab|-----------------------------------|
Eb|-----------------------------------|
  |
eb|-----------------------------------|
Bb|--2-2-2-2-2-2-2-2------------------|
Gb|--2-2-2-2-2-2-2-2-2-2-2-2-2-2-2-2--|
Db|--2-2-2-2-2-2-2-2-4-4-4-4-3-3-3-3--|
Ab|--0-0-0-0-0-0-0-0-4-4-4-4-3-3-3-3--|
Eb|------------------2-2-2-2-1-1-1-1--|
*Rhythm comes in on the 5th time
Добавлено: 17.07.2012
Другие материалы по этой песне:
  • Аккорды и текст

Страница создана 17.07.2012
http://primanota.ru/basement/march-chords.htm
Привет, Гость.
Предлагаем пройти революционный курс по гитаре.
Подарок от PrimaNota.Ru, забирай!