PrimaNota.ru - самый крупный в мире бесплатный архив песенных текстов, аккордов, табулатур и нот


Basement - Fading - таба, бас-таба, видео

Регистрация Запомнить меня
Войти через:  Facebook Google Twitter Vk Yandex Mail.ru

Basement - Fading - таба, бас-таба, видео

Печатать
Просмотров: 184
-----------------------------------------------------------------------------
                             FADING - Basement
-----------------------------------------------------------------------------
Tabbed by: Mean Mr Mustard
Email: Gotchristo@comcast.et

Tuning: Half Step Down

Great song here. Tried my best to tab it out, should be pretty good.

INTRO: x2
eb|--------------------------------------------------------------------|
Bb|--------------------------------------------------------------------|
Gb|9/11-11-11-11-1114---1414--141414181818141414---181818------1818^---|
Db|x-x--x--x--x--x-x----x-x---x-x-x-x-x-x-x-x-x-----x-x-x------x-x-----|
Ab|7/9--9--9--9--9-12---1212--121212161616121212---161616------1616^---|
Eb|--------------------------------------------------------------------|
  |
eb|-------------------------------------------------------------------|
Bb|-------------------------------------------------------------------|
Gb|-------------------------------------7---7---7-7-7----7-7---7-7-7--|
Db|-4--4----4-4-4--7-------7---7-7-7----7---7---7-7-7----7-7---7-7-7--|
Ab|-4--4----4-4-4--7-------7---7-7-7----5---5---5-5-5----5-5---5-5-5--|
Eb|-2--2----2-2-2--5-------5---5-5-5----------------------------------|
 *Half-step bends (^) up there (bend to 19th fret) 

eb|------------------------------------------------------------------|
Bb|------------------------------------------------------------------|
Gb|9/11-11-11-11-1114---1414--141414----1818--181818--181818--1818---|
Db|x-x--x--x--x--x-x----x-x---x-x-x-----x-x---x-x-x---x-x-x---x-x----|
Ab|7/9--9--9--9--9-12---1212--121212----1616--161616--161616--1616---|
Eb|------------------------------------------------------------------|
  |
eb|------------------------------------------------------------------|
Bb|------------------------------------------------------------------|
Gb|--------------------------------------7-7---7-7-7---7-7-7---7-7---|
Db|-4--4----4-4-4--7-------7---7-7-7-----7-7---7-7-7---7-7-7---7-7---|
Ab|-4--4----4-4-4--7-------7---7-7-7-----5-5---5-5-5---5-5-5---5-5---|
Eb|-2--2----2-2-2--5-------5---5-5-5---------------------------------|



VERSE 1a: (Bass plays)
eb|------------|
Bb|------------|
Gb|-18---~-----|
Db|-x----~-----|
Ab|-16---~-----|
Eb|------------|
  |
eb|------------|
Bb|------------|
Gb|-7----~-----|
Db|-7----~-----|
Ab|-5----~-----|
Eb|------------|


VERSE 1b:
eb|------------------------------------------------------------------|
Bb|------------------------------------------------------------------|
Gb|--------------------------------------7--7---7-7-7---7-7---7-7-7--|
Db|-4--4----4-4-4--7-------7---7-7-7-----7--7---7-7-7---7-7---7-7-7--|
Ab|-4--4----4-4-4--7-------7---7-7-7-----5--5---5-5-5---5-5---5-5-5--|
Eb|-2--2----2-2-2--5-------5---5-5-5---------------------------------|

eb|------------------------------------------------------------------|
Bb|------------------------------------------------------------------|
Gb|--------------------------------------7--7---7-7-7---6-6---6-6-6--|
Db|-4--4----4-4-4--7-------7---7-7-7-----7--7---7-7-7---7-7---7-7-7--|
Ab|-4--4----4-4-4--7-------7---7-7-7-----5--5---5-5-5---4-4---4-4-4--|
Eb|-2--2----2-2-2--5-------5---5-5-5---------------------------------|



CHORUS:
eb|---------------------------------|----------------------------------|--|
Bb|---------------------------------|----------------------------------|--|
Gb|-7-7---7-7-7---7-----------------|-7-7---7-7-7---7------------------|x2|
Db|-7-7---7-7-7---7-4-4---4-4-4---4-|-7-7---7-7-7---7-4-4---4-7-7---7--|--|
Ab|-5-5---5-5-5---5-4-4---4-4-4---4-|-5-5---5-5-5---5-4-4---4-7-7---7--|--|
Eb|-----------------2-2---2-2-2---2-|-----------------2-2---2-5-5---5--|--|

eb|-----------------------------|
Bb|-----------------------------|
Gb|-7-7---7-7-7---7-7-7---7-7---|
Db|-7-7---7-7-7---7-7-7---7-7---|
Ab|-5-5---5-5-5---5-5-5---5-5---|
Eb|-----------------------------|
Repeat INTRO as VERSE 2


Repeat CHORUS, w/ CHORUS LEAD:
eb|-------------------------------------------------|--|-----------------|
Bb|-10109-9-----10109-9----10109-9-----1010-9-9-----|--|-1010109-7--~----|
Gb|---------9-9---------9-9--------9-9----------9-9-|x4|-----------------|
Db|-------------------------------------------------|--|-----------------|
Ab|-------------------------------------------------|--|-----------------|
Eb|-------------------------------------------------|--|-----------------|
Добавлено: 26.06.2012
Другие материалы по этой песне:

Страница создана 26.06.2012
http://primanota.ru/basement/fading-chords.htm
Привет, Гость.
Предлагаем пройти революционный курс по гитаре.
Подарок от PrimaNota.Ru, забирай!