PrimaNota.ru - самый крупный в мире бесплатный архив песенных текстов, аккордов, табулатур и нот


Barton Larry - Aftershock - таба, видео

Регистрация Запомнить меня
Войти через:  Facebook Google Twitter Vk Yandex Mail.ru

Barton Larry - Aftershock - таба, видео

Печатать
Просмотров: 276
Уроки эстрадного вокала в Санкт-Петербурге
Aftershock
Composed and Arranged by
        Larry Barton

Tabbed by:  Jamiverywell (Matthew Hennessey)

Introduction to this tab:

This tab will not show how to exactly play this song,
but it will give you a very good idea of what it will
sound like, and it will have EVERY note that you need
to play.

This tab is best viewed in a monospace font, like
courier new, or courier.
    Each dash is an eighth note, so one measure would
be:

         G|--------
         D|--------
         A|--------
         E|--------

     There are a lot of triplets in this song.  For
those who don't know what a triplet is, it is three
notes that are played in one quarter note.  Here's an
example:

           / \
         G|-000-0/3-
         D|3---3----
         A|---------
         E|---------

      / \
The G|-00  part is played in one quarter note
    D|3--

Also, the / in the measure means a eigth rest, so //
would be a quarter rest, and so on..

Okay, on with the tab:


Standard Tuning (EADG)

Hard Rock (Tempo=110)

Intro:

                                                   6
                                Eb  D              G  G
  / \       / \       / \                / \       / \
G|-000-0/3- -000-0/// -000-0/// -------- --------- -000-0/3-
D|3---3---- 3---3---- 3---3---- 1---0--- --------- 3---3----
A|--------- --------- --------- -------- --------- ---------
E|--------- --------- --------- -------- 133313-// ---------


  G      F  Eb  F              G      G  G      F  Eb F
  / \                / \       / \       / \   
G|-000-0/-- -------- -000-0/-- -000-0/3- -000-0/-- --------
D|3---3--3- 11113--- 3---3--3- 3---3---- 3---3--3- 1--13---
A|--------- -------- --------- --------- --------- --------
E|--------- -------- --------- --------- --------- --------

           14
  D    D          Bb           G     Bb F   Eb   D
           / \       / \   
G|-------- -000-0/3- -000-0--- -------- -------- --------
D|0---00// 3---3---- 3---3---- -------- ----1--- 0-------
A|-------- --------- --------- ------1- -------- --------
E|-------- --------- --------- 3------- 1------- --------


  D        G              
                    / \
G|-------- -------- ---------
D|00/00--- -------- ---------
A|-------- -------- ---------
E|-------- 3------- 133313-//

Solos/Backgrounds on Cue:

  22
  G    G    G    G    G    G    G    EbD
  / \       / \       / \       / \
G|-000-003- -000-00-- -000-003- -000-----
D|3---3---- 3---3--3- 3---3---- 3---3110-
A|--------- --------- --------- ---------
E|--------- --------- --------- ---------

Fill 1:

  26                                           31
  C   F    BbA G    Eb  Ab   D                 G    G
                                               / \
G|-------- 3-2-0--- ----1--- -------- -------- -000-0/3-
D|----3--- ------3- 1------- 0---0--- 0---0-// 3---3----
A|3------- -------- -------- -------- -------- ---------
E|-------- -------- -------- -------- -------- ---------

  G      F  Eb  F              G    G    G      F  Eb D
  / \                / \       / \       / \       
G|-000-0/-- -------- -000-0/-- -000-0/3- -000-0/-- --------
D|3---3--3- 11113--- 3---3--3- 3---3---- 3---3--3- 1---0---
A|--------- -------- --------- --------- --------- --------
E|--------- -------- --------- --------- --------- --------

  G     D  G     D         Bb       CBb G     Bb F   C C
                    / \       / \   
G|0------- 0------- -000-0/3- -000-0--- -------- --------
D|------0- ------0- 3---3---- 3---3---- -------- --------
A|-------- -------- --------- ------31- ------1- ----3---
E|-------- -------- --------- --------- 3------- 1-------

           45
  Eb    F  G                 Eb  D
                                      / \
G|1------- -------- -------- -------- ---------
D|-------- -------- -------- 1---0--- ---------
A|-------- -------- -------- -------- ---------
E|------1- 3------- -------- -------- 133313///


That's all of it.  Even though it's a composition,
it's really good and you could change it into a good
rock song.  If you have any questions, 
E-MAIL ME!!!!  I will make changes to the song.  My
e-mail is 

Tammojim1@yahoo.com

I WILL RESPOND TO ALL E-MAILS!!   Thanks,
Jamiverywell.  Copyright 2002 by Matthew Hennessey. 
This is for private study only.  C not change it. 
You can distribute it for FREE and put it on other web
sites, but DON'T CHANGE IT!  Thanks again, Jamiverywell.
     
Добавлено: 03.06.2013
Другие материалы по этой песне:
  • Аккорды и текст

Страница создана 03.06.2013
http://primanota.ru/barton-larry/aftershock-chords.htm
Привет, Гость.
Предлагаем пройти революционный курс по гитаре.
Подарок от PrimaNota.Ru, забирай!