PrimaNota.ru - самый крупный в мире бесплатный архив песенных текстов, аккордов, табулатур и нот


Bartoli - Romance - таба, видео

Регистрация Запомнить меня
Войти через:  Facebook Google Twitter Vk Yandex Mail.ru

Bartoli - Romance - таба, видео

Печатать
Просмотров: 965
Уроки эстрадного вокала в Санкт-Петербурге
 -|---Song:-Romance--------------------------------|
A-|---Author:-Rene Bartoli-------------------------|
D-|---Transcription-by:Christian Liang-------------|
G-|---E-Mail:christian.liang@gmail.com-------------|   
B-|---http://www.chrisliang.com--------------------|
E-|---Enjoy!---------------------------------------|

Romance by Rene Bartoli (b.1941)
Standard Tuning
Key E minor

[1]

||--------0--------|------------------|
|*0----------------|-1----------------|
||----0-------0----|-----2-------2----|
||--2---2---2---2--|---2---2---2---2--|
|*-----------------|-0-------3--------|
||0----------------|------------------|
L   2   2   2   2    1 2 3 2 4 2 3 2    

R a i m i a i m i    a i m i p i m i    
  p                  p                  

[3]
|---------2--------|------------------|
|-0----------------|-0----------------|
|-----2-------2----|-----0-------0----|
|---1---1---1---1--|---2---2---2---2--|
|-2----------------|------------------|
|------------------|-0-------3--------|
  2 1 3 1 4 1 3 1      2   2 3 2   2
  a i m i a i m i    a i m i p i m i
  p                  p

[5]                                                       

|---------3--------|---------2--------|
|-0----------------|-1----------------|
|-----0-------0----|-----2-------2----|
|---2---2---2---2--|---2---2---2---2--|
|------------------|-0----------------|
|-0----------------|------------------|

  2   2 4 2   2    1 2 3 2 4 2 3 2    
                                         
  a i m i a i m i    a i m i a i m i    
  p                  p                  

[7]
                     II.............
|---------0--------|---------2-------||
|-2----------------|-4---------4---4-*|
|-----0-------0----|---2---2-----2---||
|---2---2---2---2--|-----4-----------||
|-1----------------|-2---------------*|
|------------------|-----------------||
  4 3   3   3   3    4 1 1 1 1 4 1 4
  1                  1
  a i m i a i m i    a m i m a m i m
  p                  p


[9]                  V3...............   

||-7-------12------|-8-------------7--|
||*--0---0---0---0-|---5---5---5------|
||-----0-------0---|-----5-------5----|
||-----------------|---------7--------|
||*----------------|-0----------------|
||-0---------------|------------------|

   1       4         4 1 1 1 3 1 1 4    
                                         
   a m i m a  m i m  a m i m p i m a    
   p                 p       

[11]
  IV3..............          
|-5-------8-----7--|-3----------------|
|---4---4---4------|---0---0---0---0--|
|-----4-------4----|-----0-------0----|
|-4----------------|---------2--------|
|------------------|------------------|
|------------------|-0----------------|
  2 1 1 1 4 1 1 4    4       2  
  1
  a m i m a m i a    a m i m p m i m
  p                  p

[13]       
   I3...............                     

|--1-------3-----1--|-0-------2-----0--|
|----1---1---1------|---2---2---2------|
|------2-------2----|-----0-------0----|
|-------------------|------------------|
|--0----------------|-1----------------|
|-------------------|------------------|
LH 1 1 2   4          1 3   3 4 3        

RH a m i m a m i a    a m i m a m i a    
   p                  p                  

[15]
  II.......
|-2---------3p2----|-0-------3-----7--|
|---4---4-------4--|---0---0---0------|
|-----2------------|-----0-------0----|
|---------4--------|------------------|
|-2----------------|------------------|
|------------------|-0----------------|
  1 4 1 4 3 2 1 4            1     4
  a m i m p a   m    a m i m a m i a 
  p                  p


[17]      
   V................
                                   
|--5-------------7--|-3-------2-----3-|
|----5---5---5------|---0---0---0-----|
|------5-------5----|-----0-------2---|
|----------7--------|-2-------1-------|
|--0----------------|-----------------|
|-------------------|-----------------|
           3     4    4       4   3 4            
                      1       1

RH a m i m p i m a    a m i m a m i a    
   p                  p       p      

[19]    
  __________________  ________________
 |1.                 |2.
|-0----------------||-0-------<0>-----|
|---0---0---0---0--*|---0---0-<0>-----|
|-----0-------0----||-----0---<0>-----|
|---------2--------||-----------------|
|------------------*|-----------------|
|-0----------------||-0-------<0>-----|
          1
  a m i m p m i m     a m i m 
  p                   p
Добавлено: 24.02.2012
Вам также может быть интересно:
Другие материалы по этой песне:

Страница создана 24.02.2012
http://primanota.ru/bartoli/romance-chords.htm
Привет, Гость.
Предлагаем пройти революционный курс по гитаре.
Подарок от PrimaNota.Ru, забирай!