PrimaNota.ru - самый крупный в мире бесплатный архив песенных текстов, аккордов, табулатур и нот


Barış Manço - Donence - таба, бас-таба, видео

Регистрация Запомнить меня
Войти через:  Facebook Google Twitter Vk Yandex Mail.ru

Barış Manço - Donence - таба, бас-таба, видео

Печатать
Просмотров: 62
  



  E|-------------------------------------------------------------------------------------|
  B|----------------------------------------------12-15-12-------------------------------|
  G|--14B-14B-14B----14b-12--12--------12/-----14b--------14-14-12--12-----12--12-14B----|
  D|-----------------------14--14-12-14---------------------------14--14-12--14----------|
  A|-------------------------------------------------------------------------------------|
  E|-------------------------------------------------------------------------------------|


  E|-------------------------------------------------------------------------------------|
  B|---------------------------------------------------9-12-9----------------------------|
  G|------9-11b-11b-11b-11b-11b11p9--9-------9/-----11b------11-11-9--9----9--9-11b-9----|
  D|--9-11-------------------------11-11-9-11-----------------------11-11-9-11-----------|
  A|-------------------------------------------------------------------------------------|
  E|-------------------------------------------------------------------------------------|

  E|------------12-----------------------------------------17B-17B-17B-15---15--15-17b---|
  B|----------12--15-14p12-----------------------------------------------17---17---------|
  G|-----12-14------------15-14p12--12--------12--12-14b---------------------------------|
  D|---14-------------------------14--14-12-14--14---------------------------------------|
  A|-------------------------------------------------------------------------------------|
  E|-------------------------------------------------------------------------------------|

  E|---19-15---19-15--19-15--19-15--19-15-----17-15--17-15--17-15---19-15--19-15---------|
  B|--------17------17-----17-----17-----17--------15-----15-----15------17-----17-------|
  G|-------------------------------------------------------------------------------------|
  D|-------------------------------------------------------------------------------------|
  A|-------------------------------------------------------------------------------------|
  E|-------------------------------------------------------------------------------------|


  E|---19-15---19-15--19-15--19-15--19-15------------------------------------------------|
  B|--------17------17-----17-----17-----17---15-14p12-----------------------------------|
  G|--------------------------------------------------15-14p12--12-----------------------|
  D|----------------------------------------------------------14--14-12------------------|
  A|-------------------------------------------------------------------14-13-12-11-10----|
  E|---------------------------------------------------------------------------------12/-|

  ( / - slide | p - pull off | h - hammer on | b - yarım bend | B - tam bend )

        Kolay gelsin    cag.yild@gmail.com
Добавлено: 03.06.2016
Другие материалы по этой песне:
  • Аккорды и текст

Страница создана 14.03.2016
http://primanota.ru/bars-manco/donence-chords.htm
Привет, Гость.
Предлагаем пройти революционный курс по гитаре.
Подарок от PrimaNota.Ru, забирай!