PrimaNota.ru - самый крупный в мире бесплатный архив песенных текстов, аккордов, табулатур и нот


Barry Dave - The Tupperware Blues - таба, видео

Регистрация Запомнить меня
Войти через:  Facebook Google Twitter Vk Yandex Mail.ru

Barry Dave - The Tupperware Blues - таба, видео

Печатать
Просмотров: 78
THE TUPPERWARE BLUES

Dave Barry & The Rock Bottom Remainders

from the album Stranger Than Fiction by Don't Quit Your Day Job Records

tab by Fabiano Corsetti oc_ananab@hotmail.com

-----

standard tuning, 4/4 time

...basically a blues in G

Intro
-----

------------|
------------|
------------|
------5-----|
----5-3-----|
----3-----6-|
^ . . ^ . .

G7
|------------------------|
|------------------------|
|------------------------|
|------------------5-----|
|5---x-5---x-5---5-3-----|
|3---x-3---x-3---3-----6-| (x4)
^ . . ^ . . ^ . . ^ . .

First Verse
-----------

G7
|------------------------|
|------------------------|
|------------------------|
|------------------5-----|
|5---x-5---x-5---5-3-----|
|3---x-3---x-3---3-----6-| (x7)
^ . . ^ . . ^ . . ^ . .

G7
|------------------------|
|------------------------|
|------------------------|
|------2---2-3---3-4---4-|
|5---5-0---0-1---1-2---2-|
|3---3-------------------|
^ . . ^ . . ^ . . ^ . .

First Chorus
------------


C7
|------------------------|
|------------------------|
|------------------------|
|5---5-7---7-5---5-7---5-|
|3---3-3---3-3---3-3---3-|
|------------------------| (x2)
^ . . ^ . . ^ . . ^ . .

G7
|------------------------|
|------------------------|
|------------------------|
|------------------------|
|5---5-5---5-5---5-5---5-|
|3---3-3---3-3---3-3---3-|
^ . . ^ . . ^ . . ^ . .

D7                       C7
|------------------------|------------------------|
|------------------------|------------------------|
|------------------------|------------------------|
|7---7-9---9-7---7-9---7-|5---5-7---7-5---5-7---5-|
|5---5-5---5-5---5-5---5-|3---3-3---3-3---3-3---3-|
|------------------------|------------------------|
^ . . ^ . . ^ . . ^ . .  ^ . . ^ . . ^ . . ^ . .

G7                       D7
|------------------------|------------------------|
|------------------------|------------------------|
|------------------------|------------------------|
|------4---4-5---5-6---6-|7---5-6---7-------5-----|
|5---5-2---2-3---3-4---4-|5---3-4---5-----5-3-----|
|3---3-------------------|----------------3-----6-|
^ . . ^ . . ^ . . ^ . .  ^ . . ^ . . ^ . . ^ . .

Second Verse
------------

Second Chorus
-------------

Guitar Solo
-----------

G7
|------------------------|
|------------------------|
|------------------------|
|------------------5-----|
|5---x-5---x-5---5-3-----|
|3---x-3---x-3---3-----6-| (x3)
^ . . ^ . . ^ . . ^ . .

G7
|------------------------|
|------------------------|
|------------------------|
|------2---2-3---3-4---4-|
|5---5-0---0-1---1-2---2-|
|3---3-------------------|
^ . . ^ . . ^ . . ^ . .

C7
|------------------------|
|------------------------|
|------------------------|
|5---5-7---7-5---5-7---5-|
|3---3-3---3-3---3-3---3-|
|------------------------| (x2)
^ . . ^ . . ^ . . ^ . .

G7
|------------------------|
|------------------------|
|------------------------|
|------------------------|
|5---5-5---5-5---5-5---5-|
|3---3-3---3-3---3-3---3-|
^ . . ^ . . ^ . . ^ . .

D7                       C7
|------------------------|------------------------|
|------------------------|------------------------|
|------------------------|------------------------|
|7---7-9---9-7---7-9---7-|5---5-7---7-5---5-7---5-|
|5---5-5---5-5---5-5---5-|3---3-3---3-3---3-3---3-|
|------------------------|------------------------|
^ . . ^ . . ^ . . ^ . .  ^ . . ^ . . ^ . . ^ . .

G7                       D7
|------------------------|------------------------|
|------------------------|------------------------|
|------------------------|------------------------|
|------4---4-5---5-6---6-|7---5-6---7-------5-----|
|5---5-2---2-3---3-4---4-|5---3-4---5-----5-3-----|
|3---3-------------------|----------------3-----6-|
^ . . ^ . . ^ . . ^ . .  ^ . . ^ . . ^ . . ^ . .

Third Verse
-----------

Third Chorus
------------

C7
|------------------------|
|------------------------|
|------------------------|
|5---5-7---7-5---5-7---5-|
|3---3-3---3-3---3-3---3-|
|------------------------| (x2)
^ . . ^ . . ^ . . ^ . .

G7
|------------------------|
|------------------------|
|------------------------|
|------------------------|
|5---5-5---5-5---5-5---5-|
|3---3-3---3-3---3-3---3-|
^ . . ^ . . ^ . . ^ . .

D7                       C7
|------------------------|------------------------|
|------------------------|------------------------|
|------------------------|------------------------|
|7---7-9---9-7---7-9---7-|5-----------------------|
|5---5-5---5-5---5-5---5-|3-----------------------|
|------------------------|------------------------|
^ . . ^ . . ^ . . ^ . .  ^ . . ^ . . ^ . . ^ . .

G7
|------------------------|------
|------------------------|------
|--3-----3-----3---------|------
|3---3-2---2-1---1-0---5-|3-----
|----------------------3-|1---5-
|------------------------|----3-
^ . . ^ . . ^ . . ^ . .  ^ . .

-----

comments & corrections welcome
oc_ananab@hotmail.com



_________________________________________________________________
     
Добавлено: 25.08.2013
Другие материалы по этой песне:
  • Аккорды и текст

Страница создана 25.08.2013
http://primanota.ru/barry-dave/the-tupperware-blues-chords.htm
Привет, Гость.
Предлагаем пройти революционный курс по гитаре.
Подарок от PrimaNota.Ru, забирай!