PrimaNota.ru - самый крупный в мире бесплатный архив песенных текстов, аккордов, табулатур и нот


Barrington Levy - Send A Moses - бас-таба, видео

Регистрация Запомнить меня
Войти через:  Facebook Google Twitter Vk Yandex Mail.ru

Barrington Levy - Send A Moses - бас-таба, видео

Печатать
Просмотров: 41
This is the basic pattern. It changes throughout the song.
Note that digital rips of old reggae vinyls tend to be slightly off in tuning.


Intro
  1     2     3     4      1     2     3     4      1     2     3     4      1     2     3     4     
G|------------------------|------------------------|------------------------|------------------------|
D|------------------------|------2--2-----------2--|2--2--------------------|4--4--------------------|  x 4
A|------4--4-----------4--|------------------------|------2--2-----------2--|------4--4-----------(4)|
E|-2--2-------------------|5--5--------------------|------------------------|------------------------|



  1     2     3     4      1     2     3     4      1     2     3     4      1     2     3     4     
G|------------------------|------------------------|------------------------|------------------------|
D|4--4--4--4--2--2--2--2--|4--4--4--4--------------|4--4--4--4--2--2--2--2--|4--4--4--4--------------| x 4
A|------------------------|---------------------4--|------------------------|---------------------4--|
E|------------------------|------------------------|------------------------|------------------------|


Break
  1     2     3     4     
G|------------------------|
D|2--4-----2--4--4--4-----|
A|------------------------|
E|------------------------|



The rest
  1     2     3     4      1     2     3     4      1     2     3     4      1     2     3     4     
G|------------------------|------------------------|------------------------|------------------------|
D|------------------------|------2--2-----------2--|2--2--------------------|4--4--4--4--2--2--2--2--| 
A|------4--4-----------4--|------------------------|------2--2-----------2--|------------------------|
E|-2--2-------------------|5--5--------------------|------------------------|------------------------|


  1     2     3     4      1     2     3     4      1     2     3     4      1     2     3     4     
G|------------------------|------------------------|------------------------|------------------------|
D|4--4--4--4--------------|4--4--4--4--2--2--2--2--|4--4--4--4--------------|4--4--------4--4--4-----|  
A|---------------------4--|------------------------|---------------------4--|---------4--------------|
E|------------------------|------------------------|------------------------|------------------------|
 
Добавлено: 28.05.2016
Другие материалы по этой песне:
  • Аккорды и текст

Страница создана 28.05.2016
http://primanota.ru/barrington-levy/send-a-moses-chords.htm
Привет, Гость.
Предлагаем пройти революционный курс по гитаре.
Подарок от PrimaNota.Ru, забирай!