PrimaNota.ru - самый крупный в мире бесплатный архив песенных текстов, аккордов, табулатур и нот


Baroness - Psalms Alive - таба, видео

Регистрация Запомнить меня
Войти через:  Facebook Google Twitter Vk Yandex Mail.ru

Baroness - Psalms Alive - таба, видео

Печатать
Просмотров: 80
Уроки эстрадного вокала в Санкт-Петербурге
Авторы музыки: Baroness
Авторы текста: John Baizley
-------------------------------------------------------------------------------
                           Psalms Alive - Baroness
-------------------------------------------------------------------------------
Tabbed by:
E-mail:

Tuning: E Standard

I'm unable to complete this tab, but I did figure out the intro.
The chord progression stays the same before the music gets heavy, and the song may be in 
a tuning other than E Standard, but I did it in the tuning anyways.

e|---------3-5-8-7-5-3-------------------------------------------------------|
B|-----5-6------------5-6-3------3-5-3-----------3---------------------------|
G|-5-7--------------------4--4h5-------5-4-2-4-5-----------------------------|
D|------------------------5------------------------2-5-3-2-5-----------------|
A|------------------------5--------------------------------------------------|
E|---------------------------------------------------------------------------| x2

The 2nd time through the lead is played in the background starting shortly after the G
   C    G    Dm   F    Am   C    F     Dm   F     Dm    C         G
e|---------------------------------------------------------------------------|
B|-5----3----6----1----5----5----1--r--6----1-----6-----5---------3----------|
G|-5----4----7----2----5----5----2--e--7----2-----7-----5---------4----------|
D|-5----5----7----3----7----5----3--s--7----3-----7-----5---------5----------|
A|-3----5----5----3----7----3----3--t--5----3-----5-----3---------5----------|
E|---------------------------------------------------------------------------|

Repeat until rest

Repeat intro lead
Добавлено: 10.08.2015
Другие материалы по этой песне:
  • Аккорды и текст

Страница создана 10.08.2015
http://primanota.ru/baroness/psalms-alive-chords.htm
Привет, Гость.
Предлагаем пройти революционный курс по гитаре.
Подарок от PrimaNota.Ru, забирай!