PrimaNota.ru - самый крупный в мире бесплатный архив песенных текстов, аккордов, табулатур и нот


Baroness - March To The Sea - таба, видео

Регистрация Запомнить меня
Войти через:  Facebook Google Twitter Vk Yandex Mail.ru

Baroness - March To The Sea - таба, видео

Печатать
Просмотров: 156
Авторы музыки: Baroness
Авторы текста: John Baizley
Tuning: D Standard
I recommend listening to the song a few times first.
The notes should be right, just the number of times you play them may not be.
Just play what sounds right to you. :D


INTRO (John Baizley)

|------------------3-2-0-------------------|
|-3-0h3p0------3-0-------0-----------------|
|------------------------------------------|
|------------------------------------------|
|------------------------------------------|
|-3-------3-3--3-3-3-0-----0-2-------------|

|------------------3-2-0-------------------|
|-3-0h3p0------3-0-------0-----------------|
|------------------------------------------|
|------------------------------------------|
|------------------------------------------|
|-3-------3-3--3-3-3-0---------------------|


Intro (Peter Adams)

|-15-------15-------15-------15-------14-------14-12-------12-------12-------12-------14-------14-|
|----15-------15-------15-------15-------15----------12-------12-------12-------12-------15-------|
|-------16-------16-------16-------16-------16----------12-------12-------12-------12-------16----|
|-------------------------------------------------------------------------------------------------|
|-------------------------------------------------------------------------------------------------|
|-------------------------------------------------------------------------------------------------|

|-15-------15-------15-------15-------14-------14-12-------12-------12-------|
|----15-------15-------15-------15-------15----------12-------12-------12----|
|-------16-------16-------16-------16-------16----------12-------12-------12-|
|----------------------------------------------------------------------------|
|----------------------------------------------------------------------------|
|----------------------------------------------------------------------------|


VERSE 1

1st Guitar (John Baizley)
|---------------------------------------------------------|
|---------------------------------------------------------|
|---------------------------------------------------------|
|---------------------------------------------------------| x4
|---------------------------------------------------------|
|333333333333-77777777-121212121212121212121212--14141414-|

|---------------------------------------------------------------------|
|---------------------------------------------------------------------|
|---------------------------------------------------------------------|
|---------------------------------------------------------------------| x2 
|---------------------------------------------------------------------|
|151515151515151515151515-1919191919191919-1212121212121212--14141414-|


2nd Guitar (Peter Adams)
|---------------------------------------------|
|---------------------------------------------|
|---------------------------------------------|
|---------------------------------------------| x4
|---------------------------------------------|
|333333333333-77777777-000000000000--22222222-|

|----------------------------------------------------|
|----------------------------------------------------|
|----------------------------------------------------|  x2
|999999999999-1212121212121212-999999999999-77777777-|
|----------------------------------------------------|
|----------------------------------------------------|


CHORUS

1st Guitar (John Baizley)
|------------------------------|
|------------------------------|
|------------------------------|
|-5-----9----2-----4-----------|
|-5-X12-9-X4-2-X12-4-X4--------|
|-3-----7----0-----2-----------|

|--------------------------------|
|--------------------------------|
|--------------------------------|
|-5-----9----14-----12-----------|
|-5-X12-9-X4-14-X12-12-X4--------|
|-3-----7----12-----10-----------|


2nd Guitar (Peter Adams) Can be played without the pulloffs to 0 on C string and still sounds right.
D|-----------------------------------------------------------------|
A|-----------------------------------------------------------------|
F|---------4p0---------4p0-7p0-4p0---------4p0---------4p0-7p0-4p0-|
C|-0h4h5p0-----0h4h5p0-------------0h4h5p0-----0h4h5p0-------------|
G|-----------------------------------------------------------------|
D|-----------------------------------------------------------------|

|-------------------------------------------------------------------|
|-------------------------------------------------------------------|
|---------7p0---------7p0-11p0-7p0---------7p0---------7p0-11p0-7p0-|
|-0h8h9p0-----0h8h9p0--------------0h8h9p0-----0h8h9p0--------------|
|-------------------------------------------------------------------|
|-------------------------------------------------------------------|

|---------------------------------------------------------------------------------|
|-------------------------------12p0-------------------------------12p0-10p0------|
|-----------12p0-----------12p0------12p0-----------12p0---------------------12p0-|
|-0h11h12p0------0h11h12p0----------------0h11h12p0------0h11h12p0----------------|
|---------------------------------------------------------------------------------|
|---------------------------------------------------------------------------------|

|---------------------------------------------------------------------|
|---------8p0---------8p0-12p0-8p0---------8p0---------12p0-8p0-12p0-8|
|---------------------------------------------------------------------|
|-0h8h9p0-----0h8h9p0--------------0h8h9p0-----0h8h9p0----------------|
|---------------------------------------------------------------------|
|---------------------------------------------------------------------|
(let the 8 at the end ring out)


VERSE 2 (Slightly different to 1st verse)

1st Guitar (John Baizley)
|---------------------------------------------------------|
|---------------------------------------------------------|
|---------------------------------------------------------|
|---------------------------------------------------------| x2
|---------------------------------------------------------|
|333333333333-77777777-121212121212121212121212--14141414-|

|---------------------------------------------------------------------|
|---------------------------------------------------------------------|
|---------------------------------------------------------------------|
|---------------------------------------------------------------------| x2 
|---------------------------------------------------------------------|
|151515151515151515151515-1919191919191919-1212121212121212--14141414-|


2nd Guitar (Peter Adams) 
|---------------------------------------------|
|---------------------------------------------|
|---------------------------------------------|
|---------------------------------------------| x2
|---------------------------------------------|
|333333333333-77777777-000000000000--22222222-|

|------------------------------------------------------------|
|------------------------------------------------------------|
|------------------------------------------------------------|
|999999999999-1212121212121212-999999999999-1212121212121212-|
|------------------------------------------------------------|
|------------------------------------------------------------|

|----------------------------------------------------|
|----------------------------------------------------|
|----------------------------------------------------| 
|999999999999-1212121212121212-999999999999-77777777-|
|----------------------------------------------------|
|----------------------------------------------------|


CHORUS

1st Guitar (John Baizley)
|------------------------------|
|------------------------------|
|------------------------------|
|-5-----9----2-----4-----------|
|-5-X12-9-X4-2-X12-4-X4--------|
|-3-----7----0-----2-----------|

|--------------------------------|
|--------------------------------|
|--------------------------------|
|-5-----9----14-----12-----------|
|-5-X12-9-X4-14-X12-12-X4--------|
|-3-----7----12-----10-----------|

2nd Guitar (Peter Adams) Can be played without the pulloffs to 0 on C string and still sounds right.
D|-----------------------------------------------------------------|
A|-----------------------------------------------------------------|
F|---------4p0---------4p0-7p0-4p0---------4p0---------4p0-7p0-4p0-|
C|-0h4h5p0-----0h4h5p0-------------0h4h5p0-----0h4h5p0-------------|
G|-----------------------------------------------------------------|
D|-----------------------------------------------------------------|

|-------------------------------------------------------------------|
|-------------------------------------------------------------------|
|---------7p0---------7p0-11p0-7p0---------7p0---------7p0-11p0-7p0-|
|-0h8h9p0-----0h8h9p0--------------0h8h9p0-----0h8h9p0--------------|
|-------------------------------------------------------------------|
|-------------------------------------------------------------------|

|---------------------------------------------------------------------------------|
|-------------------------------12p0-------------------------------12p0-10p0------|
|-----------12p0-----------12p0------12p0-----------12p0---------------------12p0-|
|-0h11h12p0------0h11h12p0----------------0h11h12p0------0h11h12p0----------------|
|---------------------------------------------------------------------------------|
|---------------------------------------------------------------------------------|

|---------------------------------------------------------------------|
|---------8p0---------8p0-12p0-8p0---------8p0---------12-8b----------|
|---------------------------------------------------------------------|
|-0h8h9p0-----0h8h9p0--------------0h8h9p0-----0h8h9p0----------------|
|---------------------------------------------------------------------|
|---------------------------------------------------------------------|


BREAK

1st Guitar (John Baizley)
|------------------3-2-0-------------------|
|-3-0h3p0------3-0-------0-----------------|
|------------------------------------------|
|------------------------------------------|
|------------------------------------------|
|-3-------3-3--3-3-3-0-----0-2-------------|

|------------------3-2-0-------------------|
|-3-0h3p0------3-0-------0-----------------|
|------------------------------------------|
|------------------------------------------|
|------------------------------------------|
|-3-------3-3--3-3-3-0---------------------|


2nd Guitar (Peter Adams)
|-15-------15-------15-------15-------14-------14-12-------12-------12-------|
|----15-------15-------15-------15-------15----------12-------12-------12----|
|-------16-------16-------16-------16-------16----------12-------12-------12-|
|----------------------------------------------------------------------------|
|----------------------------------------------------------------------------|
|----------------------------------------------------------------------------|


SOLO

1st Guitar (John Baizley)
|---------------------15-14-14h15p14--------------|
|-15--12h15p12--15-12----------------12--13-------|
|-------------------------------------------------|
|-------------------------------------------------|
|-------------------------------------------------|
|-------------------------------------------------|

|---------------------15b-15b-(15)----------------|
|-15--12h15p12--15-12--------------12-13----------|
|-------------------------------------------------|
|-------------------------------------------------|
|-------------------------------------------------|
|-------------------------------------------------|
(Bend up 2 frets and bring back down)


2nd Guitar (Peter Adams) 
|-----------------------------------------------------------|
|-12----------------------12-------------------12-----------|
|----12----------12-12-14----14p12-14p12----------14-12--14-|
|-------12-12h14-------------------------14-12--------------|
|-----------------------------------------------------------|
|-----------------------------------------------------------|

|-----------------------------------------------------------|
|-12----------------------12-------------------12-----------|
|----12----------12-12-14----14p12-14p12----------14-12--14-|
|-------12-12h14-------------------------14-12--------------|
|-----------------------------------------------------------|
|-----------------------------------------------------------|


CHORUS

1st Guitar (John Baizley)
|------------------------------|
|------------------------------|
|------------------------------|
|-5-----9----2-----4-----------|
|-5-X12-9-X4-2-X12-4-X4--------|
|-3-----7----0-----2-----------|

|--------------------------------|
|--------------------------------|
|--------------------------------|
|-5-----9----14-----12-----------|
|-5-X12-9-X4-14-X12-12-X4--------|
|-3-----7----12-----10-----------|


2nd Guitar (Peter Adams) Can be played without the pulloffs to 0 on C string and still sounds right.
D|-----------------------------------------------------------------|
A|-----------------------------------------------------------------|
F|---------4p0---------4p0-7p0-4p0---------4p0---------4p0-7p0-4p0-|
C|-0h4h5p0-----0h4h5p0-------------0h4h5p0-----0h4h5p0-------------|
G|-----------------------------------------------------------------|
D|-----------------------------------------------------------------|

|-------------------------------------------------------------------|
|-------------------------------------------------------------------|
|---------7p0---------7p0-11p0-7p0---------7p0---------7p0-11p0-7p0-|
|-0h8h9p0-----0h8h9p0--------------0h8h9p0-----0h8h9p0--------------|
|-------------------------------------------------------------------|
|-------------------------------------------------------------------|

|---------------------------------------------------------------------------------|
|-------------------------------12p0-------------------------------12p0-10p0------|
|-----------12p0-----------12p0------12p0-----------12p0---------------------12p0-|
|-0h11h12p0------0h11h12p0----------------0h11h12p0------0h11h12p0----------------|
|---------------------------------------------------------------------------------|
|---------------------------------------------------------------------------------|

|---------------------------------------------------------------------|
|---------8p0---------8p0-12p0-8p0---------8p0---------12p0-8p0-12p0-8|
|---------------------------------------------------------------------|
|-0h8h9p0-----0h8h9p0--------------0h8h9p0-----0h8h9p0----------------|
|---------------------------------------------------------------------|
|---------------------------------------------------------------------|
Добавлено: 13.05.2014
Другие материалы по этой песне:

Страница создана 22.07.2013
http://primanota.ru/baroness/march-to-the-sea-chords.htm
Привет, Гость.
Предлагаем пройти революционный курс по гитаре.
Подарок от PrimaNota.Ru, забирай!