PrimaNota.ru - самый крупный в мире бесплатный архив песенных текстов, аккордов, табулатур и нот


Baroness - The Line Between - таба, видео

Регистрация Запомнить меня
Войти через:  Facebook Google Twitter Vk Yandex Mail.ru

Baroness - The Line Between - таба, видео

Печатать
Просмотров: 60
Авторы музыки: Baroness
Авторы текста: John Baizley
Track 1
     Q    Q    Q    Q       Q    H.              Q    Q    Q    Q     
D||----------------------|--------------------|----------------------|
A||----------------------|--5----L------------|----------------------|
F||------------4----5----|-------L------------|------------4----5----|
C||-------2--------------|-------L------------|-------2--------------|
G||----------------------|--------------------|----------------------|
D||--0-------------------|-------L------------|--0-------------------|


            ^                                                    
  Q    Q    H           W                   Q    Q    Q    Q     
---------------------|-------------------|----------------------|
------------9--------|--L----------------|----------------------|
--L----9----9--------|--L----------------|------------4----5----|
------------9--------|--L----------------|-------2--------------|
------------7--------|--L----------------|----------------------|
---------------------|-------------------|--0-------------------|


                                                        ^         
  Q    H.              Q    Q    Q    Q       Q    Q    H         
--------------------|----------------------|---------------------|
--5----L------------|----------------------|------------9--------|
-------L------------|------------4----5----|--L----9----9--------|
-------L------------|-------2--------------|------------9--------|
--------------------|----------------------|------------7--------|
-------L------------|--0-------------------|---------------------|


   ^                                                         
   W                                                         
--------------------|-------------------|-------------------|
--10----------------|-------------------|-------------------|
---9----------------|-------------------|-------------------|
---6----------------|-------------------|-------------------|
---7----------------|-------------------|-------------------|
--------------------|-------------------|-------------------|


-------------------|-------------------|
-------------------|-------------------|
-------------------|-------------------|
-------------------|-------------------|
-------------------|-------------------|
-------------------|-------------------|


  PM PM PM PM PM PM PM PM PM PM PM PM PM PM PM PM  
  S  S  S  S  S  S  S  S  S  S  S  S  S  S  S  S   
--------------------------------------------------|
--------------------------------------------------|
--------------------------------------------------|
--------------------------------------------------|
--------------------------------------------------|
--0--0--0--0--0--0--0--0--0--0--0--0--0--0--0--0--|


  PM PM PM PM PM PM PM PM PM PM PM PM PM PM PM PM  
  S  S  S  S  S  S  S  S  S  S  S  S  S  S  S  S   
--------------------------------------------------|
--------------------------------------------------|
--------------------------------------------------|
--------------------------------------------------|
--------------------------------------------------|
--0--0--0--0--0--0--0--0--0--0--0--0--0--0--0--0--|


  PM PM PM PM PM PM PM PM PM PM PM PM PM PM PM PM  
  S  S  S  S  S  S  S  S  S  S  S  S  S  S  S  S   
--------------------------------------------------|
--------------------------------------------------|
--------------------------------------------------|
--------------------------------------------------|
--------------------------------------------------|
--0--0--0--0--0--0--0--0--0--0--0--0--0--0--0--0--|


  PM PM PM PM PM PM PM PM                                                    
  S  S  S  S  S  S  S  S  S S S S S S S S    E  S  E  S  E  S S S  E  S  E   
------------------------------------------|---------------------------------|
------------------------------------------|---------------------------------|
------------------------------------------|---------------------------------|
------------------------------------------|---------------------------------|
------------------------------------------|---------------------------------|
--0--0--0--0--0--0--0--0--0-0-0-0-0-0-0-0-|--0--0-10--0-12--0-0-0-13--0-12--|


  S S S E  S  E  S S S E  S E     E  S  E  S  E  S S S  E  S  E   
-------------------------------|---------------------------------|
-------------------------------|---------------------------------|
-------------------------------|---------------------------------|
-------------------------------|---------------------------------|
-------------------------------|---------------------------------|
--0-0-0-8--0-12--0-0-0-8--0-7--|--0--0-10--0-12--0-0-0-13--0-12--|


  S S S E  S  E  S S S E  S E     S S S  S S  S S S S S S  S S  S S S  
-------------------------------|--------------------------------------|
-------------------------------|--------------------------------------|
-------------------------------|--------------------------------------|
-------------------------------|--------------------------------------|
-------------------------------|--------------------------------------|
--0-0-0-8--0-12--0-0-0-8--0-7--|--0-0-0-10-0-12-0-0-0-0-0-12-0-14-0-0-|


  S S S  S S  S S S S S S  S S  S S S    S S S  S S  S S S S S S  S S  S S S  
--------------------------------------|--------------------------------------|
--------------------------------------|--------------------------------------|
--------------------------------------|--------------------------------------|
--------------------------------------|--------------------------------------|
--------------------------------------|--------------------------------------|
--0-0-0-12-0-14-0-0-0-0-0-14-0-16-0-0-|--0-0-0-17-0-16-0-0-0-0-0-17-0-16-0-0-|


                                                    PM PM PM PM    PM PM PM  
  S S S S S S S S S S S S S S S S    Q    Q         E  E  E  E  E  E  E  E   
----------------------------------|------------||---------------0-----------|
----------------------------------|------------||------------------5-----5--|
----------------------------------|------------||*--------6-----------6-----|
--------------0-1-0---------------|--2----7----||*-----6-----6--------------|
--------0-2-3-------2-3-2-3-2-----|--2----7----||---4-----------------------|
--0-2-3-----------------------3-2-|--0----5----||---------------------------|


  PM PM PM PM    PM PM PM    PM PM PM PM    PM PM PM  
  E  E  E  E  E  E  E  E     E  E  E  E  E  E  E  E   
--------------0-----------|--------------0-----------|
-----------------5-----5--|-----------4-----4-----4--|
--------6-----------6-----|--------5-----------5-----|
-----6-----6--------------|-----5--------------------|
--4-----------------------|--3-----------------------|
--------------------------|--------------------------|


  PM PM PM PM    PM PM PM    PM PM PM PM    PM PM PM  
  E  E  E  E  E  E  E  E     E  E  E  E  E  E  E  E   
--------------0-----------|--------------7-----------|
-----------4-----4-----4--|-----------------8-----8--|
--------5-----------5-----|--------9-----------9-----|
-----5--------------------|-----9-----9--------------|
--3-----------------------|--7-----------------------|
--------------------------|--------------------------|


  PM PM PM PM    PM PM PM    PM PM PM PM    PM PM PM  
  E  E  E  E  E  E  E  E     E  E  E  E  E  E  E  E   
--------------7-----------|--------------0-----------|
-----------------7-----7--|-----------4-----4-----4--|
--------8-----------8-----|--------5-----------5-----|
-----8-----8--------------|-----5--------------------|
--6-----------------------|--3-----------------------|
--------------------------|--------------------------|


  PM PM PM PM    PM PM PM    PM PM PM PM    PM PM PM  
  E  E  E  E  E  E  E  E     E  E  E  E  E  E  E  E   
--------------0-----------|--------------0-----------|
-----------4-----4-----4--|-----------------5-----5--|
--------5-----------5-----|--------6-----------6-----|
-----5--------------------|-----6-----6--------------|
--3-----------------------|--4-----------------------|
--------------------------|--------------------------|


  PM PM PM PM    PM PM PM    PM PM PM PM    PM PM PM  
  E  E  E  E  E  E  E  E     E  E  E  E  E  E  E  E   
--------------0-----------|--------------0-----------|
-----------------5-----5--|-----------4-----4-----4--|
--------6-----------6-----|--------5-----------5-----|
-----6-----6--------------|-----5--------------------|
--4-----------------------|--3-----------------------|
--------------------------|--------------------------|


  PM PM PM PM    PM PM PM    PM PM PM PM    PM PM PM  
  E  E  E  E  E  E  E  E     E  E  E  E  E  E  E  E   
--------------0-----------|--------------7-----------|
-----------4-----4-----4--|-----------------8-----8--|
--------5-----------5-----|--------9-----------9-----|
-----5--------------------|-----9-----9--------------|
--3-----------------------|--7-----------------------|
--------------------------|--------------------------|


  PM PM PM PM    PM PM PM    PM PM PM PM    PM PM PM  
  E  E  E  E  E  E  E  E     E  E  E  E  E  E  E  E   
--------------7-----------|--------------0-----------|
-----------------7-----7--|-----------4-----4-----4--|
--------8-----------8-----|--------5-----------5-----|
-----8-----8--------------|-----5--------------------|
--6-----------------------|--3-----------------------|
--------------------------|--------------------------|


  PM PM PM PM    PM PM PM    PM PM PM PM    PM PM PM  
  E  E  E  E  E  E  E  E     E  E  E  E  E  E  E  E   
--------------0-----------|--------------------------|
-----------4-----4-----4--|--------------3-----------|
--------5-----------5-----|--------4--------4-----4--|
-----5--------------------|-----4-----4--------4-----|
--3-----------------------|--2-----------------------|
--------------------------|--------------------------|


  PM PM PM PM    PM PM PM                             
  E  E  E  E  E  E  E  E     E  E  E  E  E  E  E  E   
--------------------------|--------------4-----------|
--------------4-----------|-----------5-----5--------|
--------5--------5-----5--|--------6-----------6-----|
-----5-----5--------5-----|-----6-----------------6--|
--3-----------------------|--4-----------------------|
--------------------------|--------------------------|


                             PM PM PM PM    PM PM PM  
  E  E  E  E  E  E  E  E     E  E  E  E  E  E  E  E   
--------------4-----------|--------------------------|
-----------5-----5--------|--------------3-----------|
--------6-----------6-----|--------4--------4-----4--|
-----6-----------------6--|-----4-----4--------4-----|
--4-----------------------|--2-----------------------|
--------------------------|--------------------------|


  E  E  E  E  E  E  E  E     Q.     H         E     E   E  E   E  E   E   Q     
--------------------------|---------0------------|-----------------------------|
--------------2-----------|---------0------------|-----------------------------|
--------2--------2-----2--|----------------------|--6------7------9------11----|
-----2-----2--------2-----|--2---------------/3--|-----/4-----/6-----/7--------|
--0-----------------------|--2-------------------|-----------------------------|
--------------------------|--0-------------------|-----------------------------|


   E   E   E   E   E   E   E   E      E   E   E   E   E   E   E   E   
------16----------16----------16--|------16----------16----------16--|
----------17----------17----------|----------16----------16----------|
--18----------18----------18------|--17----------17----------17------|
----------------------------------|----------------------------------|
----------------------------------|----------------------------------|
----------------------------------|----------------------------------|


   E   E   E   E   E   E  E   E      E   E   E   E   E   E   E   E   
------12----------12-------------|------12----------12----------12--|
----------14----------14--L---L--|----------14----------14---L---L--|
--16----------16-------------16--|---L----------16----------16------|
---------------------------------|----------------------------------|
---------------------------------|----------------------------------|
---------------------------------|----------------------------------|


   E   E   E   E   E   E   E   E      E   E   E   E   E   E   E   E   
------16----------16----------16--|------16----------16----------16--|
----------17----------17----------|----------16----------16----------|
--18----------18----------18------|--17----------17----------17------|
----------------------------------|----------------------------------|
----------------------------------|----------------------------------|
----------------------------------|----------------------------------|


   E   E   E   E   E   E  E   E      E   E   E   E   E   E   E   E   
------12----------12-------------|------12----------12----------12--|
----------14----------14--L---L--|----------14----------14---L---L--|
--16----------16-------------16--|---L----------16----------16------|
---------------------------------|----------------------------------|
---------------------------------|----------------------------------|
---------------------------------|----------------------------------|


   E   E   E   E   E   E   E   E      E   E   E   E   E   E   E   E   
------16----------16----------16--|------16----------16----------16--|
----------17----------17----------|----------16----------16----------|
--18----------18----------18------|--17----------17----------17------|
----------------------------------|----------------------------------|
----------------------------------|----------------------------------|
----------------------------------|----------------------------------|


   E   E   E   E   E   E   E   E      E   E   E   E   E   E   E   E   
------17----------17----------17--|------17----------17----------17--|
----------17----------17----------|----------17----------17----------|
--18----------18----------18------|--17----------17----------17------|
----------------------------------|----------------------------------|
----------------------------------|----------------------------------|
----------------------------------|----------------------------------|


   E   E   E   E   E   E   E   E      E   E   E   E   E   E   E   E   
------14----------14----------14--|------17----------17----------17--|
----------14----------14----------|----------17----------17----------|
--15----------15----------15------|--18----------18----------18------|
----------------------------------|----------------------------------|
----------------------------------|----------------------------------|
----------------------------------|----------------------------------|


   E   E   E   E   E   E  E   E     E  E  E  E  E  E   E  E   
------12----------12-------------|---------------------------|
----------14----------14--L---L--|---------------------------|
--16----------16-------------16--|--6-----7-----9-----11-----|
---------------------------------|--3-----4-----6------7-----|
---------------------------------|---------------------------|
---------------------------------|---------------------------|


  W                   W                     S S S S S S S S S S S S S S S S  
-------------------|--------------------||----------------------------------|
-------------------|--------------------||----------------------------------|
-------------------|-------------------*||----------------------------------|
--7----------------|--L----------------*||----------------------------------|
--7----------------|--L-----------------||----------------------------------|
--5----------------|--L-----------------||--x-x-x-x-x-x-x-x-x-x-x-x-x-x-x-x-|


  S S S S S S S S S S S S S S S S    S S S S S S S S S S S S S S S S  
----------------------------------|----------------------------------|
----------------------------------|----------------------------------|
----------------------------------|----------------------------------|
----------------------------------|----------------------------------|
----------------------------------|----------------------------------|
--x-x-x-x-x-x-x-x-x-x-x-x-x-x-x-x-|--x-x-x-x-x-x-x-x-x-x-x-x-x-x-x-x-|


  S S S S S S S S S S S S S S S S     W                     W                  
----------------------------------|--16~----------------|--15~----------------|
----------------------------------|---------------------|---------------------|
----------------------------------|---------------------|---------------------|
----------------------------------|---------------------|---------------------|
----------------------------------|---------------------|---------------------|
--x-x-x-x-x-x-x-x-x-x-x-x-x-x-x-x-|---------------------|---------------------|


   W                    W                    W                  
--12~----------------|--L----------------|--16~----------------|
---------------------|-------------------|---------------------|
---------------------|-------------------|---------------------|
---------------------|-------------------|---------------------|
---------------------|-------------------|---------------------|
---------------------|-------------------|---------------------|


   W                     W                    W                 
--15~----------------|--12~----------------|--L----------------|
---------------------|---------------------|-------------------|
---------------------|---------------------|-------------------|
---------------------|---------------------|-------------------|
---------------------|---------------------|-------------------|
---------------------|---------------------|-------------------|


   W                     W                     W                  
--16~----------------|--15~----------------|--12~----------------|
---------------------|---------------------|---------------------|
---------------------|---------------------|---------------------|
---------------------|---------------------|---------------------|
---------------------|---------------------|---------------------|
---------------------|---------------------|---------------------|


  W                   E  E  Q    Q    Q         Q     Q    E   Q    E   
--L----------------|--0---------------------|--------------------------|
-------------------|------------------------|--------------------------|
-------------------|------------------5S----|--13~----L----L--11----9--|
-------------------|------------------------|--------------------------|
-------------------|------------------3S----|--11~----L----L---9----7--|
-------------------|------------------------|--------------------------|


  H           Q.       E      W                    W                 
--------------------------|---------------------|-------------------|
--------------------------|---------------------|-------------------|
--8brb--------8------8g9--|---------------------|-------------------|
--------------------------|--/9~----------------|--L----------------|
--6-----------6--------7--|---------------------|-------------------|
--------------------------|---7~----------------|--L----------------|


    Q    Q    E   Q    E     H           Q.       E      W                  
--------------------------|--------------------------|---------------------|
--------------------------|--------------------------|---------------------|
--/13----L----L--11----9--|--8brb--------8------8g9--|--13~----------------|
--------------------------|--------------------------|---------------------|
---11----L----L---9----7--|--6-----------6--------7--|--11-----------------|
--------------------------|--------------------------|---------------------|


  W                    H        E  E   E   E      H        E   E   E   E   
-------------------|--------------------------|---------------------------|
-------------------|--------------------------|---------------------------|
--L----------------|--13--------L--9--11--13--|--11--------L--11--13--14--|
-------------------|--------------------------|---------------------------|
-------------------|--11-----------7---9--11--|---9------------9--11--12--|
-------------------|--------------------------|---------------------------|


   Q     Q    E   Q     E      E   E   E   E  H         
---------------------------|---------------------------|
---------------------------|---------------------------|
--14----14----L--16----14--|--13--14--13--11--9--------|
---------------------------|---------------------------|
--12----12-------14----11--|--11--12--11---9--7--------|
---------------------------|---------------------------|


  Q    Q    E   E  E  E      Q     Q    E    E    E    E    
-------------------------|---------------------------------|
-------------------------|-----------------(12)------(12)--|
---------------/8--9-----|--11b----L----L----L----L----L---|
-------------------------|---------------------------------|
-------------------------|---------------------------------|
-------------------------|---------------------------------|


  E   E   E  E   E  E   E   E     E   E   E   E   E  E   E  E   
-------------------------------|-------------------------------|
-----12---------12---------12--|-----12--12--12---------12-----|
--L---L---L--L---L--L---L---L--|--L---L---L---L---L--L---L--L--|
-------------------------------|-------------------------------|
-------------------------------|-------------------------------|
-------------------------------|-------------------------------|


   E   E   E   E   E   E   E   E      E   E   E   E   E   E   E   E   
------16----------16----------16--|------16----------16----------16--|
----------17----------17----------|----------16----------16----------|
--18----------18----------18------|--17----------17----------17------|
----------------------------------|----------------------------------|
----------------------------------|----------------------------------|
----------------------------------|----------------------------------|


   E   E   E   E   E   E  E   E      E   E   E   E   E   E   E   E   
------12----------12-------------|------12----------12----------12--|
----------14----------14--L---L--|----------14----------14---L---L--|
--16----------16-------------16--|---L----------16----------16------|
---------------------------------|----------------------------------|
---------------------------------|----------------------------------|
---------------------------------|----------------------------------|


   E   E   E   E   E   E   E   E      E   E   E   E   E   E   E   E   
------16----------16----------16--|------16----------16----------16--|
----------17----------17----------|----------16----------16----------|
--18----------18----------18------|--17----------17----------17------|
----------------------------------|----------------------------------|
----------------------------------|----------------------------------|
----------------------------------|----------------------------------|


   E   E   E   E   E   E  E   E      E   E   E   E   E   E   E   E   
------12----------12-------------|------12----------12----------12--|
----------14----------14--L---L--|----------14----------14---L---L--|
--16----------16-------------16--|---L----------16----------16------|
---------------------------------|----------------------------------|
---------------------------------|----------------------------------|
---------------------------------|----------------------------------|


   E   E   E   E   E   E   E   E      E   E   E   E   E   E   E   E   
------16----------16----------16--|------16----------16----------16--|
----------17----------17----------|----------16----------16----------|
--18----------18----------18------|--17----------17----------17------|
----------------------------------|----------------------------------|
----------------------------------|----------------------------------|
----------------------------------|----------------------------------|


   E   E   E   E   E   E   E   E      E   E   E   E   E   E   E   E   
------17----------17----------17--|------17----------17----------17--|
----------17----------17----------|----------17----------17----------|
--18----------18----------18------|--17----------17----------17------|
----------------------------------|----------------------------------|
----------------------------------|----------------------------------|
----------------------------------|----------------------------------|


   E   E   E   E   E   E   E   E      E   E   E   E   E   E   E   E   
------14----------14----------14--|------17----------17----------17--|
----------14----------14----------|----------17----------17----------|
--15----------15----------15------|--18----------18----------18------|
----------------------------------|----------------------------------|
----------------------------------|----------------------------------|
----------------------------------|----------------------------------|


   E   E   E   E   E   E  E   E     E   E  E   E   E   E   Q     
------12----------12---L---------|------------------------------|
----------14-----------L---------|------------------------------|
--16----------16----------6------|--7------9------11------13----|
----------------------/3--L--/4--|--L--/6--L--/7---L--/9--------|
---------------------------------|------------------------------|
---------------------------------|------------------------------|


   E   E   E   E   E   E   E   E      E   E   E   E   E   E   E   E   
------14----------14----------14--|------17----------17----------17--|
----------14----------14----------|----------17----------17----------|
--15----------15----------15------|--18----------18----------18------|
----------------------------------|----------------------------------|
----------------------------------|----------------------------------|
----------------------------------|----------------------------------|


  W                   W                  
-------------------|-------------------||
-------------------|-------------------||
-------------------|-------------------||
-------------------|-------------------||
-------------------|-------------------||
--0----------------|--L----------------||


Track 2
D||-------|-------|-------|-------|-------|-------|-------|-------|-------|
A||-------|-------|-------|-------|-------|-------|-------|-------|-------|
F||-------|-------|-------|-------|-------|-------|-------|-------|-------|
C||-------|-------|-------|-------|-------|-------|-------|-------|-------|
G||-------|-------|-------|-------|-------|-------|-------|-------|-------|
D||-------|-------|-------|-------|-------|-------|-------|-------|-------|


                          PM PM PM PM PM PM PM PM PM PM PM PM PM PM PM PM  
  H        E  E  E  E     S  S  S  S  S  S  S  S  S  S  S  S  S  S  S  S   
--------------------0--|--------------------------------------------------|
--------------------0--|--------------------------------------------------|
-----------------------|--------------------------------------------------|
-----------------------|--------------------------------------------------|
-----------------------|--------------------------------------------------|
-----------------------|--0--0--0--0--0--0--0--0--0--0--0--0--0--0--0--0--|


  PM PM PM PM PM PM PM PM PM PM PM PM PM PM PM PM  
  S  S  S  S  S  S  S  S  S  S  S  S  S  S  S  S   
--------------------------------------------------|
--------------------------------------------------|
--------------------------------------------------|
--------------------------------------------------|
--------------------------------------------------|
--0--0--0--0--0--0--0--0--0--0--0--0--0--0--0--0--|


  PM PM PM PM PM PM PM PM PM PM PM PM PM PM PM PM  
  S  S  S  S  S  S  S  S  S  S  S  S  S  S  S  S   
--------------------------------------------------|
--------------------------------------------------|
--------------------------------------------------|
--------------------------------------------------|
--------------------------------------------------|
--0--0--0--0--0--0--0--0--0--0--0--0--0--0--0--0--|


  PM PM PM PM PM PM PM PM PM PM PM PM PM PM PM PM  
  S  S  S  S  S  S  S  S  S  S  S  S  S  S  S  S   
--------------------------------------------------|
--------------------------------------------------|
--------------------------------------------------|
--------------------------------------------------|
--------------------------------------------------|
--0--0--0--0--0--0--0--0--0--0--0--0--0--0--0--0--|


  PM PM PM PM PM PM PM PM PM PM PM PM PM PM PM PM  
  S  S  S  S  S  S  S  S  S  S  S  S  S  S  S  S   
--------------------------------------------------|
--------------------------------------------------|
--------------------------------------------------|
--------------------------------------------------|
--------------------------------------------------|
--0--0--0--0--0--0--0--0--0--0--0--0--0--0--0--0--|


  PM PM PM PM PM PM PM PM PM PM PM PM PM PM PM PM  
  S  S  S  S  S  S  S  S  S  S  S  S  S  S  S  S   
--------------------------------------------------|
--------------------------------------------------|
--------------------------------------------------|
--------------------------------------------------|
--------------------------------------------------|
--0--0--0--0--0--0--0--0--0--0--0--0--0--0--0--0--|


  PM PM PM PM PM PM PM PM PM PM PM PM PM PM PM PM  
  S  S  S  S  S  S  S  S  S  S  S  S  S  S  S  S   
--------------------------------------------------|
--------------------------------------------------|
--------------------------------------------------|
--------------------------------------------------|
--------------------------------------------------|
--0--0--0--0--0--0--0--0--0--0--0--0--0--0--0--0--|


  PM PM PM PM PM PM PM PM                  
  S  S  S  S  S  S  S  S  S S S S S S S S  
------------------------------------------|
------------------------------------------|
------------------------------------------|
------------------------------------------|
------------------------------------------|
--0--0--0--0--0--0--0--0--0-0-0-0-0-0-0-0-|


  S S S  S S S  S S S S S  S S S  S S    S S S S S S  S S S S S S S S S S  
--------------------------------------|-----------------------------------|
--------------------------------------|-----------------------------------|
--------------------------------------|-----------------------------------|
--------------------------------------|-----------------------------------|
--------------------------------------|-----------------------------------|
--0-0-0-10-0-0-12-0-0-0-0-13-0-0-12-0-|--0-0-0-8-0-0-12-0-0-0-0-8-0-0-7-0-|


  S S S  S S S  S S S S S  S S S  S S    S S S S S S  S S S S S S S S S S  
--------------------------------------|-----------------------------------|
--------------------------------------|-----------------------------------|
--------------------------------------|-----------------------------------|
--------------------------------------|-----------------------------------|
--------------------------------------|-----------------------------------|
--0-0-0-10-0-0-12-0-0-0-0-13-0-0-12-0-|--0-0-0-8-0-0-12-0-0-0-0-8-0-0-7-0-|


  S S S  S S  S S S S S S  S S  S S S    S S S  S S  S S S S S S  S S  S S S  
--------------------------------------|--------------------------------------|
--------------------------------------|--------------------------------------|
--------------------------------------|--------------------------------------|
--------------------------------------|--------------------------------------|
--------------------------------------|--------------------------------------|
--0-0-0-10-0-12-0-0-0-0-0-12-0-14-0-0-|--0-0-0-12-0-14-0-0-0-0-0-14-0-16-0-0-|


  S S S  S S  S S S S S S  S S  S S S         Q    Q     
--------------------------------------|----|------------|
--------------------------------------|----|------------|
--------------------------------------|----|------------|
--------------------------------------|----|--2----7----|
--------------------------------------|----|--2----7----|
--0-0-0-17-0-16-0-0-0-0-0-17-0-16-0-0-|----|--0----5----|


    E  E  E  E  E  E  E  E     E  E  E  E  E  E  E  E   
|---------------------------|--------------------------|
|---------------------------|--------------------------|
|*--6--6--6--6--6--6--6--6--|--6--6--6--6--6--6--6--6--|
|*--6--6--6--6--6--6--6--6--|--6--6--6--6--6--6--6--6--|
|---4--4--4--4--4--4--4--4--|--4--4--4--4--4--4--4--4--|
|---------------------------|--------------------------|


  E  E  E  E  E  E  E  E     E  E  E  E  E  E  E  E   
--------------------------|--------------------------|
--------------------------|--------------------------|
--5--5--5--5--5--5--5--5--|--5--5--5--5--5--5--5--5--|
--5--5--5--5--5--5--5--5--|--5--5--5--5--5--5--5--5--|
--3--3--3--3--3--3--3--3--|--3--3--3--3--3--3--3--3--|
--------------------------|--------------------------|


  E  E  E  E  E  E  E  E     E  E  E  E  E  E  E  E   
--------------------------|--------------------------|
--------------------------|--------------------------|
--9--9--9--9--9--9--9--9--|--8--8--8--8--8--8--8--8--|
--9--9--9--9--9--9--9--9--|--8--8--8--8--8--8--8--8--|
--7--7--7--7--7--7--7--7--|--6--6--6--6--6--6--6--6--|
--------------------------|--------------------------|


  E  E  E  E  E  E  E  E     E  E  E  E  E  E  E  E   
--------------------------|--------------------------|
--------------------------|--------------------------|
--5--5--5--5--5--5--5--5--|--5--5--5--5--5--5--5--5--|
--5--5--5--5--5--5--5--5--|--5--5--5--5--5--5--5--5--|
--3--3--3--3--3--3--3--3--|--3--3--3--3--3--3--3--3--|
--------------------------|--------------------------|


  E  E  E  E  E  E  E  E     E  E  E  E  E  E  E  E   
--------------------------|--------------------------|
--------------------------|--------------------------|
--6--6--6--6--6--6--6--6--|--6--6--6--6--6--6--6--6--|
--6--6--6--6--6--6--6--6--|--6--6--6--6--6--6--6--6--|
--4--4--4--4--4--4--4--4--|--4--4--4--4--4--4--4--4--|
--------------------------|--------------------------|


  E  E  E  E  E  E  E  E     E  E  E  E  E  E  E  E   
--------------------------|--------------------------|
--------------------------|--------------------------|
--5--5--5--5--5--5--5--5--|--5--5--5--5--5--5--5--5--|
--5--5--5--5--5--5--5--5--|--5--5--5--5--5--5--5--5--|
--3--3--3--3--3--3--3--3--|--3--3--3--3--3--3--3--3--|
--------------------------|--------------------------|


  E  E  E  E  E  E  E  E     E  E  E  E  E  E  E  E   
--------------------------|--------------------------|
--------------------------|--------------------------|
--9--9--9--9--9--9--9--9--|--8--8--8--8--8--8--8--8--|
--9--9--9--9--9--9--9--9--|--8--8--8--8--8--8--8--8--|
--7--7--7--7--7--7--7--7--|--6--6--6--6--6--6--6--6--|
--------------------------|--------------------------|


  E  E  E  E  E  E  E  E     E  E  E  E  E  E  E  E   
--------------------------|--------------------------|
--------------------------|--------------------------|
--5--5--5--5--5--5--5--5--|--5--5--5--5--5--5--5--5--|
--5--5--5--5--5--5--5--5--|--5--5--5--5--5--5--5--5--|
--3--3--3--3--3--3--3--3--|--3--3--3--3--3--3--3--3--|
--------------------------|--------------------------|


  PM PM PM PM PM PM PM PM    PM PM PM PM PM PM PM PM  
  E  E  E  E  E  E  E  E     E  E  E  E  E  E  E  E   
--------------------------|--------------------------|
--------------------------|--------------------------|
--------------------------|--------------------------|
--4--4--4--4--4--4--4--4--|--5--5--5--5--5--5--5--5--|
--2--2--2--2--2--2--2--2--|--3--3--3--3--3--3--3--3--|
--------------------------|--------------------------|


  E  E  E  E  E  E  E  E     E  E  E  E  E  E  E  E   
--------------------------|--------------------------|
--------------------------|--------------------------|
--6--6--6--6--6--6--6--6--|--6--6--6--6--6--6--6--6--|
--6--6--6--6--6--6--6--6--|--6--6--6--6--6--6--6--6--|
--4--4--4--4--4--4--4--4--|--4--4--4--4--4--4--4--4--|
--------------------------|--------------------------|


  PM PM PM PM PM PM PM PM    PM PM PM PM PM PM PM PM                         
  E  E  E  E  E  E  E  E     E  E  E  E  E  E  E  E     Q.     H         E   
--------------------------|--------------------------|---------0------------|
--------------------------|--------------------------|---------0------------|
--------------------------|--------------------------|----------------------|
--4--4--4--4--4--4--4--4--|--2--2--2--2--2--2--2--2--|--2---------------/3--|
--2--2--2--2--2--2--2--2--|--0--0--0--0--0--0--0--0--|--2-------------------|
--------------------------|--------------------------|--0-------------------|


  E   E  E   E  E   E   Q       E  E  E  E  E  E  E  E   
-----------------------------|--------------------------|
-----------------------------|--------------------------|
--6------7------9------11----|--------------------------|
-----/4-----/6-----/7--------|--6--6--6--6--6--6--6--6--|
-----------------------------|--4--4--4--4--4--4--4--4--|
-----------------------------|--------------------------|


  E  E  E  E  E  E  E  E     Q.     H        E     Q.     H        E   
--------------------------|---------0--------L--|---------0--------L--|
--------------------------|---------0--------L--|---------0--------L--|
--------------------------|---------------------|---------------------|
--------------------------|--2------------------|--2------------------|
--6--6--6--6--6--6--6--6--|--2------------------|--2------------------|
--4--4--4--4--4--4--4--4--|--0------------------|--0------------------|


  E  E  E  E  E  E  E  E     E  E  E  E  E  E  E  E     Q.     H        E   
--------------------------|--------------------------|---------0--------L--|
--------------------------|--------------------------|---------0--------L--|
--------------------------|--------------------------|---------------------|
--6--6--6--6--6--6--6--6--|--------------------------|--2------------------|
--4--4--4--4--4--4--4--4--|--6--6--6--6--6--6--6--6--|--2------------------|
--------------------------|--4--4--4--4--4--4--4--4--|--0------------------|


   W                      E  E  E  E  E  E  E  E     E  E  E  E  E  E  E  E   
-----------------------|--------------------------|--------------------------|
-----------------------|--------------------------|--------------------------|
--13brb----------------|--------------------------|--------------------------|
-----------------------|--6--6--6--6--6--6--6--6--|--------------------------|
--11brb----------------|--4--4--4--4--4--4--4--4--|--6--6--6--6--6--6--6--6--|
-----------------------|--------------------------|--4--4--4--4--4--4--4--4--|


  E  E  E  E  E  E  E  E     E  E  E  E  E  E  E  E   
--------------------------|--------------------------|
--------------------------|--------------------------|
--------------------------|--------------------------|
--------------------------|--------------------------|
--7--7--7--7--7--7--7--7--|--7--7--7--7--7--7--7--7--|
--5--5--5--5--5--5--5--5--|--5--5--5--5--5--5--5--5--|


  E  E  E  E  E  E  E  E     E  E  E  E  E  E  E  E     Q.     H        E   
--------------------------|--------------------------|---------0--------L--|
--------------------------|--------------------------|---------0--------L--|
--------------------------|--------------------------|---------------------|
--------------------------|--------------------------|--2------------------|
--4--4--4--4--4--4--4--4--|--7--7--7--7--7--7--7--7--|--2------------------|
--2--2--2--2--2--2--2--2--|--5--5--5--5--5--5--5--5--|--0------------------|


  E  E  E  E  E  E   E  E     W                   W                   
---------------------------|-------------------|--------------------||
---------------------------|-------------------|--------------------||
--6-----7-----9-----11-----|-------------------|-------------------*||
--3-----4-----6------7-----|--7----------------|--L----------------*||
---------------------------|--7----------------|--L-----------------||
---------------------------|--5----------------|--L-----------------||


-------------------|-------------------|-------------------|-------------------|
-------------------|-------------------|-------------------|-------------------|
-------------------|-------------------|-------------------|-------------------|
-------------------|-------------------|-------------------|-------------------|
-------------------|-------------------|-------------------|-------------------|
-------------------|-------------------|-------------------|-------------------|


  S S S S S S S S S S S S S S S S    S S S S S S S S S S S S S S S S  
----------------------------------|----------------------------------|
----------------------------------|----------------------------------|
----------------------------------|----------------------------------|
----------------------------------|----------------------------------|
----------------------------------|----------------------------------|
--x-x-x-x-x-x-x-x-x-x-x-x-x-x-x-x-|--x-x-x-x-x-x-x-x-x-x-x-x-x-x-x-x-|


  S S S S S S S S S S S S S S S S    S S S S S S S S S S S S S S S S  
----------------------------------|----------------------------------|
----------------------------------|----------------------------------|
----------------------------------|----------------------------------|
----------------------------------|----------------------------------|
----------------------------------|----------------------------------|
--x-x-x-x-x-x-x-x-x-x-x-x-x-x-x-x-|--x-x-x-x-x-x-x-x-x-x-x-x-x-x-x-x-|


  PM PM PM PM PM PM PM PM PM PM PM PM PM PM PM PM  
  S  S  S  S  S  S  S  S  S  S  S  S  S  S  S  S   
--------------------------------------------------|
--------------------------------------------------|
--------------------------------------------------|
--------------------------------------------------|
--------------------------------------------------|
--0--0--0--0--0--0--0--0--0--0--0--0--0--0--0--0--|


  PM PM PM PM PM PM PM PM PM PM PM PM PM PM PM PM  
  S  S  S  S  S  S  S  S  S  S  S  S  S  S  S  S   
--------------------------------------------------|
--------------------------------------------------|
--------------------------------------------------|
--------------------------------------------------|
--------------------------------------------------|
--0--0--0--0--0--0--0--0--0--0--0--0--0--0--0--0--|


  PM PM PM PM PM PM PM PM PM PM PM PM PM PM PM PM  
  S  S  S  S  S  S  S  S  S  S  S  S  S  S  S  S   
--------------------------------------------------|
--------------------------------------------------|
--------------------------------------------------|
--------------------------------------------------|
--------------------------------------------------|
--0--0--0--0--0--0--0--0--0--0--0--0--0--0--0--0--|


  PM PM PM PM PM PM PM PM PM PM PM PM PM PM PM PM  
  S  S  S  S  S  S  S  S  S  S  S  S  S  S  S  S   
--------------------------------------------------|
--------------------------------------------------|
--------------------------------------------------|
--------------------------------------------------|
--------------------------------------------------|
--0--0--0--0--0--0--0--0--0--0--0--0--0--0--0--0--|


  PM PM PM PM PM PM PM PM PM PM PM PM PM PM PM PM  
  S  S  S  S  S  S  S  S  S  S  S  S  S  S  S  S   
--------------------------------------------------|
--------------------------------------------------|
--------------------------------------------------|
--------------------------------------------------|
--------------------------------------------------|
--0--0--0--0--0--0--0--0--0--0--0--0--0--0--0--0--|


  PM PM PM PM PM PM PM PM PM PM PM PM PM PM PM PM  
  S  S  S  S  S  S  S  S  S  S  S  S  S  S  S  S   
--------------------------------------------------|
--------------------------------------------------|
--------------------------------------------------|
--------------------------------------------------|
--------------------------------------------------|
--0--0--0--0--0--0--0--0--0--0--0--0--0--0--0--0--|


  PM PM PM PM PM PM PM PM PM PM PM PM PM PM PM PM  
  S  S  S  S  S  S  S  S  S  S  S  S  S  S  S  S   
--------------------------------------------------|
--------------------------------------------------|
--------------------------------------------------|
--------------------------------------------------|
--------------------------------------------------|
--0--0--0--0--0--0--0--0--0--0--0--0--0--0--0--0--|


  PM PM PM PM PM PM PM PM PM PM PM PM PM PM PM PM                         
  S  S  S  S  S  S  S  S  S  S  S  S  S  S  S  S     E  Q    Q    Q.      
--------------------------------------------------|----------------------|
--------------------------------------------------|----------------------|
--------------------------------------------------|----------------------|
--------------------------------------------------|----------------------|
--------------------------------------------------|----------------------|
--0--0--0--0--0--0--0--0--0--0--0--0--0--0--0--0--|--0-------------------|


  E  E  E  S E  S E  E  S S    E  E  E  S E  S E  E  S S    Q.     H        E   
----------------------------|----------------------------|---------0--------L--|
----------------------------|----------------------------|---------0--------L--|
----------------------------|----------------------------|---------------------|
--6--6--6--6-6--6-6--6--6-6-|----------------------------|--2------------------|
--4--4--4--4-4--4-4--4--4-4-|--6--6--6--6-6--6-6--6--6-6-|--2------------------|
----------------------------|--4--4--4--4-4--4-4--4--4-4-|--0------------------|


  Q.     H        E     E  E  E  S E  S E  E  S S    E  E  E  S E  S E  E  S S  
---------0--------L--|----------------------------|----------------------------|
---------0--------L--|----------------------------|----------------------------|
---------------------|----------------------------|----------------------------|
--2------------------|--6--6--6--6-6--6-6--6--6-6-|----------------------------|
--2------------------|--4--4--4--4-4--4-4--4--4-4-|--6--6--6--6-6--6-6--6--6-6-|
--0------------------|----------------------------|--4--4--4--4-4--4-4--4--4-4-|


  Q.     H        E      W                      E  E  E  S E  S E  E  S S  
---------0--------L--|-----------------------|----------------------------|
---------0--------L--|-----------------------|----------------------------|
---------------------|--13brb----------------|----------------------------|
--2------------------|-----------------------|--6--6--6--6-6--6-6--6--6-6-|
--2------------------|--11brb----------------|--4--4--4--4-4--4-4--4--4-4-|
--0------------------|-----------------------|----------------------------|


  E  E  E  S E  S E  E  S S    E  E  E  S E  S E  E  S S  
----------------------------|----------------------------|
----------------------------|----------------------------|
----------------------------|----------------------------|
----------------------------|----------------------------|
--6--6--6--6-6--6-6--6--6-6-|--7--7--7--7-7--7-7--7--7-7-|
--4--4--4--4-4--4-4--4--4-4-|--5--5--5--5-5--5-5--5--5-5-|


  E  E  E  S E  S E  E  S S    E  E  E  E  E  E  E  E   
----------------------------|--------------------------|
----------------------------|--------------------------|
----------------------------|--------------------------|
----------------------------|--------------------------|
--7--7--7--7-7--7-7--7--7-7-|--4--4--4--4--4--4--4--4--|
--5--5--5--5-5--5-5--5--5-5-|--2--2--2--2--2--2--2--2--|


  E  E  E  E  E  E  E  E     Q.     H        E     Q.     H        E   
--------------------------|---------0--------L--|---------0--------L--|
--------------------------|---------0--------L--|---------0--------L--|
--------------------------|---------------------|---------------------|
--------------------------|--2------------------|--2------------------|
--7--7--7--7--7--7--7--7--|--2------------------|--2------------------|
--5--5--5--5--5--5--5--5--|--0------------------|--0------------------|


  E  E  E  E  E  E  E  E     E  E  E  E  E  E  E  E     Q.     H        E   
--------------------------|--------------------------|---------0--------L--|
--------------------------|--------------------------|---------0--------L--|
--------------------------|--------------------------|---------------------|
--6--6--6--6--6--6--6--6--|--------------------------|--2------------------|
--4--4--4--4--4--4--4--4--|--6--6--6--6--6--6--6--6--|--2------------------|
--------------------------|--4--4--4--4--4--4--4--4--|--0------------------|


  Q.     H        E     E  E  E  E  E  E  E  E     E  E  E  E  E  E  E  E   
---------0--------L--|--------------------------|--------------------------|
---------0--------L--|--------------------------|--------------------------|
---------------------|--------------------------|--------------------------|
--2------------------|--6--6--6--6--6--6--6--6--|--------------------------|
--2------------------|--4--4--4--4--4--4--4--4--|--6--6--6--6--6--6--6--6--|
--0------------------|--------------------------|--4--4--4--4--4--4--4--4--|


  Q.     H        E      W                      E  E  E  E  E  E  E  E   
---------0--------L--|-----------------------|--------------------------|
---------0--------L--|-----------------------|--------------------------|
---------------------|--13brb----------------|--------------------------|
--2------------------|-----------------------|--6--6--6--6--6--6--6--6--|
--2------------------|--11brb----------------|--4--4--4--4--4--4--4--4--|
--0------------------|-----------------------|--------------------------|


  E  E  E  E  E  E  E  E     E  E  E  E  E  E  E  E   
--------------------------|--------------------------|
--------------------------|--------------------------|
--------------------------|--------------------------|
--------------------------|--------------------------|
--6--6--6--6--6--6--6--6--|--7--7--7--7--7--7--7--7--|
--4--4--4--4--4--4--4--4--|--5--5--5--5--5--5--5--5--|


  E  E  E  E  E  E  E  E     E  E  E  E  E  E  E  E   
--------------------------|--------------------------|
--------------------------|--------------------------|
--------------------------|--------------------------|
--------------------------|--------------------------|
--7--7--7--7--7--7--7--7--|--4--4--4--4--4--4--4--4--|
--5--5--5--5--5--5--5--5--|--2--2--2--2--2--2--2--2--|


  E  E  E  E  E  E  E  E     Q.     Q     E  E   E   
--------------------------|---------0-----L---------|
--------------------------|---------0-----L---------|
--------------------------|------------------6------|
--------------------------|--2-----------/3--L--/4--|
--7--7--7--7--7--7--7--7--|--2----------------------|
--5--5--5--5--5--5--5--5--|--0----------------------|


  E   E  E   E   E   E   Q       E  E  E  E  E  E  E  E   
------------------------------|--------------------------|
------------------------------|--------------------------|
--7------9------11------13----|--------------------------|
--L--/6--L--/7---L--/9--------|--------------------------|
------------------------------|--4--4--4--4--4--4--4--4--|
------------------------------|--2--2--2--2--2--2--2--2--|


  E  E  E  E  E  E  E  E     W                   W                  
--------------------------|-------------------|-------------------||
--------------------------|-------------------|-------------------||
--------------------------|-------------------|-------------------||
--------------------------|-------------------|-------------------||
--7--7--7--7--7--7--7--7--|--2----------------|--L----------------||
--5--5--5--5--5--5--5--5--|--0----------------|--L----------------||




Duration Legend
---------------
W - whole
H - half
Q - quarter
E - 8th
S - 16th
T - 32nd
X - 64th
. - note dotted
|-n-|  - n-tuplets


Tablature Legend
----------------
L - tied note
x - dead note
g - grace note
(n) - ghost note
> - accentuded note
NH - natural harmonic
AH - artificial harmonic
TH - tapped harmonic
SH - semi harmonic
PH - pitch harmonic
h - hammer on
p - pull off
b - bend
br - bendRelease
pb - preBend
pbr - preBendRelease
brb - bendReleaseBend
\n/ - tremolo bar dip
\n - tremolo bar dive
-/n - tremolo bar Release up
/n\ - tremolo bar inverted dip
/n - tremolo bar return
-\n - tremolo bar Release down
S - shift slide
s - legato slide
/ -  slide into from below or out of upwards
\ -  slide into from above or out of downwards
~ - vibrato
W - wide vibrato
tr - trill
TP - tremolo picking
T - tapping
S - slap
P - pop
< - fade in
^ - brush up
v - brush down
Добавлено: 08.05.2016
Другие материалы по этой песне:

Страница создана 08.05.2016
http://primanota.ru/baroness/line-between-chords.htm
Привет, Гость.
Предлагаем пройти революционный курс по гитаре.
Подарок от PrimaNota.Ru, забирай!