PrimaNota.ru - самый крупный в мире бесплатный архив песенных текстов, аккордов, табулатур и нот


Baroness - Isak - таба, видео

Регистрация Запомнить меня
Войти через:  Facebook Google Twitter Vk Yandex Mail.ru

Baroness - Isak - таба, видео

Печатать
Просмотров: 150
Авторы музыки: Baroness
Авторы текста: John Baizley
Artist - Baroness
Song - Isak
Album - Red Album

I'm suprised nobody's tabbed this yet. good song


intro starting at 0:57

1st guitar

-------------------------------------------------------------------------|
-------------------------------------------------------------------------|
------------------------------------------------------6------------------x4
------------6-6-6------------6-6-6------------6-6-6-----8-6-8-6-6--------|
-----------8----------------8----------------8-----------------8-8-6-8-6-|
--6-6---6-9--------6-6---6-9--------6-6---6-9---------------------------9|


2nd guitar
--------------------------------------------------------9-6--6-----------|
------------------------------------------------------------9--9-6-9-6---|
----------------------------------------------------------------------8-6|
-------------------------------------------------------------------------x4
-------------------------------------------------------------------------|
-------------------------------------------------------------------------|



----------------------------------------------------------------------|
----------------------------------------------------------------------|
--10s8-8-8-8-8----10s8-8-8-8-8----8s13-13-13-13-13s10-10-10-10--------|
----------------------------------------------------------------------|
---8s6-6-6-6-6-----8s6-6-6-6-6----6s11-11-11-11-11s8--8--8--8---------|
----------------------------------------------------------------------|

----------------------------------------------------------------------|
----------------------------------------------------------------------|
--10s8-8-8-8-8----10s8-8-8-8-8----8s13-13-13-13-13s15-15-15-15--------|
----------------------------------------------------------------------|
---8s6-6-6-6-6-----8s6-6-6-6-6----6s11-11-11-11-11s13-13-13-13--------|
----------------------------------------------------------------------|

----------------------------------------------------------------------|
----------------------------------------------------------------------|
--10s8-8-8-8-8----10s8-8-8-8-8----8s13-13-13-13-13s10-10-10-10--------|
----------------------------------------------------------------------|
---8s6-6-6-6-6-----8s6-6-6-6-6----6s11-11-11-11-11s8--8--8--8---------|
----------------------------------------------------------------------|

----------------------------------------------------------------------|
----------------------------------------------------------------------|
--10s8-8-8-8-8----10s8-8-8-8-8----8s13-13-13-13-13s15-15-15-15--------|
----------------------------------------------------------------------|
---8s6-6-6-6-6-----8s6-6-6-6-6----6s11-11-11-11-11s13-13-13-13--------|
----------------------------------------------------------------------|

-------------------------------------------|
-------------------------------------------|
--------------------------------------7-7--|
--11-10-9-8-----10-9-8-7---------8-8--7-7--|
-----------10-9---------9-8------8-8--5-5--|
---------------------------------6-6-------|

1st guitar

-------------------------------------------------------------------------|
-------------------------------------------------------------------------|
------------------------------------------------------6------------------x2
------------6-6-6------------6-6-6------------6-6-6-----8-6-8-6-6--------|
-----------8----------------8----------------8-----------------8-8-6-8-6-|
--6-6---6-9--------6-6---6-9--------6-6---6-9---------------------------9|


2nd guitar
--------------------------------------------------------9-6--6-----------|
------------------------------------------------------------9--9-6-9-6---|
----------------------------------------------------------------------8-6|
-------------------------------------------------------------------------x2
-------------------------------------------------------------------------|
-------------------------------------------------------------------------|

----------------------------------------------------------------------|
----------------------------------------------------------------------|
--10s8-8-8-8-8----10s8-8-8-8-8----8s13-13-13-13-13s10-10-10-10--------|
----------------------------------------------------------------------|
---8s6-6-6-6-6-----8s6-6-6-6-6----6s11-11-11-11-11s8--8--8--8---------|
----------------------------------------------------------------------|

----------------------------------------------------------------------|
----------------------------------------------------------------------|
--10s8-8-8-8-8----10s8-8-8-8-8----8s13-13-13-13-13s15-15-15-15--------|
----------------------------------------------------------------------|
---8s6-6-6-6-6-----8s6-6-6-6-6----6s11-11-11-11-11s13-13-13-13--------|
----------------------------------------------------------------------|

----------------------------------------------------------------------|
----------------------------------------------------------------------|
--10s8-8-8-8-8----10s8-8-8-8-8----8s13-13-13-13-13s10-10-10-10--------|
----------------------------------------------------------------------|
---8s6-6-6-6-6-----8s6-6-6-6-6----6s11-11-11-11-11s8--8--8--8---------|
----------------------------------------------------------------------|

--------------------------------------------------------------|
--------------------------------------------------------------|
--10s8-8-8-8-8----10s8-8-8-8-8----12-------------7-8-10-11-12-|
------------------------------------12---------6-7-8-10-11-12-|
---8s6-6-6-6-6-----8s6-6-6-6-6---------8-8s6---6-5-6-8--9--10-|
-----------------------------------------------8--------------|

Sorry.  No solo yet

Добавлено: 23.05.2012
Другие материалы по этой песне:

Страница создана 23.05.2012
http://primanota.ru/baroness/isak-chords.htm
Привет, Гость.
Предлагаем пройти революционный курс по гитаре.
Подарок от PrimaNota.Ru, забирай!