PrimaNota.ru - самый крупный в мире бесплатный архив песенных текстов, аккордов, табулатур и нот


Baroness - Board Up The House - бас-таба, видео

Регистрация Запомнить меня
Войти через:  Facebook Google Twitter Vk Yandex Mail.ru

Baroness - Board Up The House - бас-таба, видео

Печатать
Просмотров: 114
Авторы музыки: Baroness
Авторы текста: John Baizley
Artist:      Baroness
Song:        Board Up the House 
Album:       Yellow and Green Disc 2
Tab Author:  J. Wagner
Note:        If you have any correction please e-mail me, I give credit to all contributors
E-Mail:      ThirteenStrings@Gmail.com
Site:        www.ThirteenStrings.com

(0:22)  Intro Riff x2
G|-----------------------------------------|
D|----------5-----5------------------------|
A|------------------------------3-----3-2--| x2
E|--3----3-----3-----3--3----3-----3-------|

G|-------------------------------------------------|
D|----------5-----5--------------------------------|
A|------------------------------3-----0--3---------|
E|--3----3-----3-----3--3----3-----3------------3--|

(Rest)

(0:51)  Verse
G|-----------------------------------------|
D|----------5-----5------------------------|
A|------------------------------3-----3-2--| x4
E|--3----3-----3-----3--3----3-----3-------|

G|-----------------------|
D|-----------------2--5--|
A|--------2--3--5--------|
E|--3--5-----------------|

G|-----------------------------------------|
D|----------5-----5------------------------|
A|------------------------------3-----3-2--| x4
E|--3----3-----3-----3--3----3-----3-------|

G|--------------------------------------------------|
D|--------------------------------------------------|
A|--3--2-----4--3-----5--4-----6--5-----3-----------|
E|--------3--------3--------3--------3-----3--0--1--|

(1:22) x2
G|---------------------------------------|
D|----------5-----5----------------------|
A|------------------------------3-----3--|
E|--3----3-----3-----3--3----3-----3-----|

G|--------------------------------------------------|
D|--------------5--4-----2-----0--------------------|
A|--3--3--3--3-----------------------3--3-----5-----|
E|--------------------------------------------------|

(1:35) x2
G|--------------------------------------------------|
D|--------------------------------------------------|
A|--3--3--3--3--------------3--3--3--3--------------|
E|--------------3--3--3--3--------------3--3--3--3--|

G|--------------------------------------------------|
D|--------------5--4-----2-----0--------------------|
A|--3--3--3--3-----------------------3--3-----5-----|
E|--------------------------------------------------|

(1:47)
G|-----------------------------------------------|
D|-----------------------5--5--5--5--5--5--5--5--|
A|-----------------------------------------------|
E|--3--3--3--3--3--3--3--------------------------|

(1:54)
G|-----------------------------------------|
D|----------5-----5------------------------|
A|------------------------------3-----3-2--| x2
E|--3----3-----3-----3--3----3-----3-------|

G|-------------------------------------------------|
D|----------5-----5--------------------------------|
A|------------------------------3-----0--3---------|
E|--3----3-----3-----3--3----3-----3------------3--|

(2:07)
G|-----------------------------------------|
D|----------5-----5------------------------|
A|------------------------------3-----3-2--| x4
E|--3----3-----3-----3--3----3-----3-------|

G|-----------------------|
D|-----------------2--5--|
A|--------2--3--5--------|
E|--3--5-----------------|

G|-----------------------------------------|
D|----------5-----5------------------------|
A|------------------------------3-----3-2--| x4
E|--3----3-----3-----3--3----3-----3-------|

G|--------------------------------------------------|
D|--------------------------------------------------|
A|--3--2-----4--3-----5--4-----6--5-----3-----------|
E|--------3--------3--------3--------3-----3--0--1--|

(2:37) x2
G|---------------------------------------|
D|----------5-----5----------------------|
A|------------------------------3-----3--|
E|--3----3-----3-----3--3----3-----3-----|

G|--------------------------------------------------|
D|--------------5--4-----2-----0--------------------|
A|--3--3--3--3-----------------------3--3-----5-----|
E|--------------------------------------------------|

(2:49) x2
G|--------------------------------------------------|
D|--------------------------------------------------|
A|--3--3--3--3--------------3--3--3--3--------------|
E|--------------3--3--3--3--------------3--3--3--3--|

G|--------------------------------------------------|
D|--------------5--4-----2-----0--------------------|
A|--3--3--3--3-----------------------3--3-----5-----|
E|--------------------------------------------------|

(3:02)
G|-----------------------------------------------|
D|-----------------------5--5--5--5--5--5--5--5--|
A|--3--3--3--3--3--3--3--------------------------|
E|-----------------------------------------------|

(Rest)

(3:22) Bridge x8
G|-------------------------------------------------------|
D|----------3---3-1---1-0--------------6---6-3---3-1--3--|
A|-------------------------3-----------------------------|
E|--3-3---3--------------------3-3---3-------------------|

Pre-Outro
G|-----------------------------------------------|
D|-----------------------------------------------|
A|--6--6--6--6--6--6--6--6--6--6--6--6--6--6--6--|
E|-----------------------------------------------|

G|-----------------------------------------------|
D|-----------------------------------------------|
A|--3--3--3--3--3--3--3--3--3--3--3--3--3--3--3--|
E|-----------------------------------------------|

G|--------------------------|
D|--------------------------|
A|--6--6--6--6--6--6--6--6--|
E|--------------------------|

Outro x2
G|-------------------------------------------------------|
D|----------3---3-1---1-0--------------6---6-3---3-1--3--|
A|-------------------------3-----------------------------|
E|--3-3---3--------------------3-3---3-------------------|

End
G|-----|
D|-----|
A|-----|
E|--3\-|
Добавлено: 22.12.2013
Другие материалы по этой песне:
  • Аккорды и текст

Страница создана 22.12.2013
http://primanota.ru/baroness/board-up-the-house-chords.htm
Привет, Гость.
Предлагаем пройти революционный курс по гитаре.
Подарок от PrimaNota.Ru, забирай!