PrimaNota.ru - самый крупный в мире бесплатный архив песенных текстов, аккордов, табулатур и нот


Baroness - Blackpowder Orchard - таба, видео

Регистрация Запомнить меня
Войти через:  Facebook Google Twitter Vk Yandex Mail.ru

Baroness - Blackpowder Orchard - таба, видео

Печатать
Просмотров: 150
Уроки эстрадного вокала в Санкт-Петербурге
Авторы музыки: John Baizley

-------------------------------------------------------------------------------
                         BLACKPOWDER ORCHARD - Baroness
-------------------------------------------------------------------------------
Tabbed by: itsonlycapital
Email: itsonlycapital@gmail.com

Tunings: Down 1 step (elec.), Drop C (acous.)


G1 (Acous.)
 |
d|---------------------------------|-----------------------------------|
A|-----------------3-----------3---|-----------------3-------<7>-------|
F|-----------2h4-0-----2-------2---|-----------2h4-0-----2---<7>-------|
C|-0---4h5-0-------------------4---|-0---4h5-0---------------<7>-------|
G|---------------------------------|-----------------------------------|
C|-------------------------0-------|-----------------------------------|


d|---------------------------------|---------------------------------|
A|-----------------3-----------3---|---------------------------------|
F|-----------2h4-0-----2-------2---|-----------2h4-0-4p2-----2-------|
C|-0---4h5-0-------------------4---|-0---4h5-0-----------4h5---0h2h4-|
G|---------------------------------|---------------------------------|
C|-------------------------0-------|---------------------------------|

Second acoustic doubles after first four bars


G2
 |
d|---------------------------------|---------------------------------|
A|-7-----------------------8p7---7-|-10---------------------10p8-7h8-|
F|-----------------------------9---|---------------------------------|
C|---------------------------------|---------------------------------|
G|---------------------------------|---------------------------------|
D|---------------------------------|---------------------------------|
 |
G3
 |
d|---------------------------------|---------------------------------|
A|---------------------------------|---------------------------------|
F|---------------------------------|---------------------------------|
C|---------------------------------|---------------------------------|
G|-5-----------------------7p5---7-|-9-----------------------9p7-5h7-|
D|-----------------------------9---|---------------------------------|
 |
G4
 |
d|-14------------------15h14----14-|-17------------------17p15-14h15-|
A|---------------------------17----|---------------------------------|
F|---------------------------------|---------------------------------|
C|---------------------------------|---------------------------------|
G|---------------------------------|---------------------------------|
D|---------------------------------|---------------------------------|


G2
 |
d|---------------------------------|---------------------------------|
A|-7-----------------8-7---7-------|---------------------------------|
F|-----------------------9---9-7---|-7-------------------------------|
C|-------------------------------9-|---------------------------------|
G|---------------------------------|---------------------------------|
D|---------------------------------|---------------------------------|
 |
G3
 |
d|---------------------------------|---------------------------------|
A|---------------------------------|---------------------------------|
F|---------------------------------|---------------------------------|
C|---------------------------------|---------------------------------|
G|-5-----------------7-5-----------|---------------------------------|
D|-----------------------9-7-9-7-9-|-7-------------------------------|
 |
G4
 |
d|-14---------15-14----14----------|---------------------------------|
A|------------------17----17-15-17-|-15------------------------------|
F|---------------------------------|---------------------------------|
C|---------------------------------|---------------------------------|
G|---------------------------------|---------------------------------|
D|---------------------------------|---------------------------------|



| /  slide up
| \  slide down
| h  hammer-on
| p  pull-off
| ~  vibrato
| +  harmonic
| x  Mute note
===============================================================================
Добавлено: 07.04.2012
Другие материалы по этой песне:

Страница создана 10.03.2012
http://primanota.ru/baroness/blackpowder-orchard-chords.htm
Привет, Гость.
Предлагаем пройти революционный курс по гитаре.
Подарок от PrimaNota.Ru, забирай!