PrimaNota.ru - самый крупный в мире бесплатный архив песенных текстов, аккордов, табулатур и нот


Bark Psychosis - From What Is Said To When Its Read - текст песни, таба, видео

Регистрация Запомнить меня
Войти через:  Facebook Google Twitter Vk Yandex Mail.ru

Bark Psychosis - From What Is Said To When Its Read - текст песни, таба, видео

Печатать
Просмотров: 142
---------------------------------------------------------------------
         FROM WHAT IS SAID TO WHEN ITS READ : Bark Psychosis
---------------------------------------------------------------------
Tabbed by: lifer
Email:

Tuning: standard

Capo on 1st fret

Part A
e|-------------------------------------------------------------------|
B|---0-----0-----0-----0---------------------------------------------|
G|---4-----6-----8---------------------------------------------------|
D|---4-----6-----6-----6---------------------------------------------|
A|---2-----4-----6-----4---------------------------------------------|
E|---0-----0-----0-----4---------------------------------------------|


Part B
e|--------5-------5-------5------------|
B|----3-------3-------3-------3---3----|
G|------3-------3-------3-------3------|
D|-------------------------------------|
A|--5-------5-------5-------5----------|
E|-------------------------------------| (X2)

e|--------7-------7-------7-----------|
B|----5-------5-------5-------5---5---|
G|------5-------5-------5-------5-----|
D|------------------------------------|
A|--7-------7-------7-------7---------|
E|------------------------------------|

e|--------7-------7-------5-----------|
B|----5-------5-------5-------5---5---|
G|------5-------5-------5-------5-----|
D|------------------------------------|
A|--7-------7-------7-------7---------|
E|------------------------------------|


Part C
e|---0-----0-----0-----0---------------------------------------------|
B|---0-----0-----0----12---------------------------------------------|
G|---9-----9----11----11---------------------------------------------|
D|---0-----0-----0-----0---------------------------------------------|
A|---7-----7-----9-----9---------------------------------------------|
E|---8----10----10----10---------------------------------------------|

note: Parts A and C are relative to capo (move everything up 1 fret),
part B is not.
Добавлено: 20.05.2012
Другие материалы по этой песне:
  • Аккорды и текст

Страница создана 20.05.2012
http://primanota.ru/bark-psychosis/from-what-is-said-to-when-its-read-chords.htm
Привет, Гость.
Предлагаем пройти революционный курс по гитаре.
Подарок от PrimaNota.Ru, забирай!