PrimaNota.ru - самый крупный в мире бесплатный архив песенных текстов, аккордов, табулатур и нот


Bark Psychosis - Bloodrush - таба, видео

Регистрация Запомнить меня
Войти через:  Facebook Google Twitter Vk Yandex Mail.ru

Bark Psychosis - Bloodrush - таба, видео

Печатать
Просмотров: 146
---------------------------------------------------------------------
                      BLOODRUSH : Bark Psychosis
---------------------------------------------------------------------
Tabbed by: lifer
Email:

Tuning: standard

e|-------------------------------------------------------------------|
B|---------3----------------3----------------------------------------|
G|-------0---0---0------0-----0---0----------------------------------|
D|-----4-------4------4---4-----4------------------------------------|
A|---5---------------------------------------------------------------|
E|-------------------------------------------------------------------|

e|-----------0-------------------------------------------------------|
B|---------3---3-----3-----------------------------------------------|
G|-------0-------0-------0---0---------------------------------------|
D|-----4-----------4-------4-----------------------------------------|
A|---5---------------------------------------------------------------|
E|-------------------------------------------------------------------|

e|-------------------------------------------------------------------|
B|---------3------2--------------------------------------------------|
G|-------2---2---(2)-------------------------------------------------|
D|-----0-------0-(0)-------------------------------------------------|
A|---0---------------------------------------------------------------|
E|-------------------------------------------------------------------|

e|---------0------------------2---------------------------------------|
B|-------3---3----2-----------2---------------------------------------|
G|-----2-------0—(2)----------2---------------------------------------|
D|---0-----------(0)----------0---------------------------------------|
A|--------------------------------------------------------------------|
E|--------------------------------------------------------------------|
  Sweep up for final chord

e|-------------------------------------------------------------------|
B|-------3---3---3---3---3---3-2-------3---3---3---3---2---5---2-----|
G|-----2---2---2---2---2---2-----2---2---2---2---2---2---2---2---2---|
D|---0---------------------------------------------------------------|
A|-------------------------------------------------------------------|
E|-------------------------------------------------------------------|

e|-------------------------------------------------------------------|
B|---------0---------------0---------------0---------------0---------|
G|-----0-----0---0-----0-----0---0-----0-----0---0-----0-----0---0---|
D|---2---2-----2-----2---2-----2-----2---2-----2-----2---2-----2-----|
A|-------------------------------------------------------------------|
E|-------------------------------------------------------------------|

Final part

e|-------2-----2-----2-----0-----0-----------------------------------|
B|---------3-----3-----3-----3-----3---------------------------------|
G|-----2-------------------------------------------------------------|
D|---0-------0-----0-----0-----0-------------------------------------|
A|-------------------------------------------------------------------|
E|-------------------------------------------------------------------|

e|-------2-----2-----2-----3---0-------------------------------------|
B|---------3-----3-----3---------------------------------------------|
G|-----2---------------------------2---------------------------------|
D|---0-------0-----0-----0---0---0-----------------------------------|
A|-------------------------------------------------------------------|
E|-------------------------------------------------------------------|

e|-------------------------------------------------------------------|
B|-------3-----3-----2-----2-----2-----------------------------------|
G|---------2-----2-----2-----2-----2---------------------------------|
D|-----2-------------------------------------------------------------|
A|---0-------0-----0-----0-----0-------------------------------------|
E|-------------------------------------------------------------------|

e|-------------------------------------------------------------------|
B|-------3-----3-----2-----2-----2-----------------------------------|
G|---------2-----2-----2-----2-----2---------------------------------|
D|-----2-------------------------------------------------------------|
A|---0-------0-----0-----0-----0-------------------------------------|
E|-------------------------------------------------------------------|
Repeat ad nauseum
Добавлено: 26.03.2012
Другие материалы по этой песне:
  • Аккорды и текст

Страница создана 26.03.2012
http://primanota.ru/bark-psychosis/bloodrush-chords.htm
Привет, Гость.
Предлагаем пройти революционный курс по гитаре.
Подарок от PrimaNota.Ru, забирай!