PrimaNota.ru - самый крупный в мире бесплатный архив песенных текстов, аккордов, табулатур и нот


Bark Psychosis - 400 Winters - аккорды и текст, видео

Регистрация Запомнить меня
Войти через:  Facebook Google Twitter Vk Yandex Mail.ru

Bark Psychosis - 400 Winters - аккорды и текст, видео

Печатать
Просмотров: 224
Уроки эстрадного вокала в Санкт-Петербурге
400 Winters
Bark Psychosis
---------------------------------------------------------------------------
                      400 WINTERS : Bark Psychosis
---------------------------------------------------------------------------
Tabbed by: lifer
Email:

Tuning: standard

    Em7 Dm9 E7M   D7M   F7M   F G

e|---0---0----0-----0-----0---0-0------------------------------------------|
B|---0---0----9-----7-----1---0-0------------------------------------------|
G|---8---6----8-----6-----2---2-4------------------------------------------|
D|---9---7----9-----7-----3---3-5------------------------------------------|
A|---7---5----7-----5-----3---3-5------------------------------------------|
E|----------------------------1-3------------------------------------------|

Not to be confused with the G above, Ill call this Gprog

e|---5-5555-3-3333-0-0000--------------------------------------------------|
B|---0-0000-0-0000-0-0000-3-3333-------------------------------------------|
G|---0-0000-0-0000-0-0000-0-0000-------------------------------------------|
D|---0-0000-0-0000-0-0000-0-0000-------------------------------------------|
A|-------------------------------------------------------------------------|
E|---3-3333-3-3333-3-3333-3-3333-------------------------------------------|

Intro

Em7 Dm9

E7M  
Loose rein, let us rest
D7M  
Where words speak, nor confess
E7M  
Always beside, always besides
D7M  
For one another winding west
E7M                    
We seek and grow apart
Dm9
(no lyrics, segue into second part)

F7M                              Gprog
Loose rein, let us rest
F7M                            Gprog
Where words speak, nor confess
       F7M  
Always beside, always besides
    Gprog
For one another winding west
F7M                    Gprog
We seek and grow apart

The rest is the same as above, except for the end where the song mellows out a bit:

F                        G
400 Winters, never count
F                              G
A final sign of things to come 
F                             G
You cannot lay your hand upon
F                              
A final sign of things to come
         G    F
Its only ever more

Добавлено: 26.04.2012
Другие материалы по этой песне:
  • Аккорды и текст

Страница создана 26.04.2012
http://primanota.ru/bark-psychosis/400-winters-chords.htm
Привет, Гость.
Предлагаем пройти революционный курс по гитаре.
Подарок от PrimaNota.Ru, забирай!