PrimaNota.ru - самый крупный в мире бесплатный архив песенных текстов, аккордов, табулатур и нот


Barenaked Ladies - Summertime - текст песни, таба, видео

Регистрация Запомнить меня
Войти через:  Facebook Google Twitter Vk Yandex Mail.ru

Barenaked Ladies - Summertime - текст песни, таба, видео

Печатать
Просмотров: 110
Barenaked Ladies - Summertime off of All in Good Time
tabbed by InstantEvil aka Tyler Anderson
4.18.10

E    | 022xxx
F    | 133xxx
F#   | 244xxx
A    | X022XX
A#   | X133XX
B    | X244XX
AMaj7| x02120 or 575655


Riff 1 DISTORTED
e|-----------------------------------|
B|-----------------------------------|
G|-----------------------------------|
D|-----7-----7-----7-----7-----5s7s5-|
A|---5-----5-----5-----5-----5-------|
E|-7-----7-----7-----7-----7---------|


Riff 2 DISTORTED
e|--------------------------------------------------------------------------------------------0-|
B|-------------------------------10-10-10-10-10-10-10-10-10-10-14-14-14-14-14-14-14-14-14-14--2-|
G|------------9-11-----9-11----9-11-11-11-11-11-11-11-11-11-11-14-14-14-14-14-14-14-14-14-14--1-|
D|12-12-12-12-------12-------12---------------------------------------------------------------2-|
A|--------------------------------------------------------------------------------------------0-|
E|--------------------------------------------------------------------------------------------x-|

Riff 3 DISTORTED
e|------------------|
B|------------------|
G|------------------|
D|-----7-----7------|
A|---5-----5-----5--|
E|-7-----7-----7----|

Chorus (because I can't remember some chord names.)

e|--5--|---4--|---X--|--x--|
B|--7--|---5--|---6--|--7--|
G|--6--|---4--|---6--|--6--|
D|--7--|---6--|---4--|--7--|
A|--5--|---4--|------|--6--|
E|-----|------|------|-----|
  Dmaj7 C#min7   C#    D# (it's not really D# but for writing purposes I got lazy…)

Lyrics

AMaj7 (let ring)
Saving it up

Savoring every ounce of sunlight
(Riff 1)
AMaj7

What comes to be, gradually

Feels like overnight
(Riff 1)


EEFF    F#
  So, bundle up
AAA#A#  B

  And hunker down
EEFF    F#

  See you on the other side
E(let ring)

  Mercury falls so


Dmaj7
 How, how do we make it through the days?
                            C#min7
 How do we not cave in, and bottom out?
           C#

Well, you have to understand that
      Dmaj7

Soon enough we'll wake up from such a daze,
                        D#

thanks to all the many ways
                    Dmaj7 let ring        

We're all pushing through, for Summertime


Amaj7 followed by Riff 2


AMaj7 (let ring)
We cover it up, we bottle it in,

But that won't make it feel right
(Riff 1)
AMaj7

Toppin' it off, rubbing it in

There's always a big mess of white
Riff 3


Same as above
So bundle up

And hunker down

Here it comes again 

Just one more round

See you on the other side

Mercury falls so


Dmaj7
 How, how do we make it through the days?
                            C#min7
 How do we not cave in, and bottom out?
           C#

Well, you have to understand that
      Dmaj7

Soon enough we'll wake up from such a daze,
                        D#

thanks to all the many ways
                    Dmaj7 let ring        

We're all pushing through, for Summertime


AMaj7 let ring
Ba Da Ba Ba Da Ba Ba Da Baaaa
Riff 1
AMaj 7
Ba Da Ba Ba Da Ba Ba Da Baaaa
Riff 2

Oooh (basically same chords as the chorus only palm muted)


Dmaj7
 How, how do we make it through the days?
                            C#min7
 How do we not cave in, and bottom out?
           C#

Well, you have to understand that
      Dmaj7

Soon enough we'll wake up from such a daze,
                        D#

thanks to all the many ways
                    Dmaj7 let ring        

We're all pushing through, for Summertime


AMaj7 let ring
Ba Da Ba Ba Da Ba Ba Da Baaaa
Riff 1 (we're all pushing through for summertime)
AMaj 7
Ba Da Ba Ba Da Ba Ba Da Baaaa
Riff 1 (we're all pushing through for summertime)
AMaj7 let ring
Ba Da Ba Ba Da Ba Ba Da Baaaa
Riff 2 (we're all pushing through for summertime)
AMaj 7
Ba Da Ba Ba Da Ba Ba Da Baaaa
Riff 1 (we're all pushing through for summertime)
Добавлено: 26.02.2012
Другие материалы по этой песне:
  • Аккорды и текст

Страница создана 26.02.2012
http://primanota.ru/barenaked-ladies/summertime-chords.htm
Привет, Гость.
Предлагаем пройти революционный курс по гитаре.
Подарок от PrimaNota.Ru, забирай!