PrimaNota.ru - самый крупный в мире бесплатный архив песенных текстов, аккордов, табулатур и нот


Barenaked Ladies - One And Only - текст песни, таба, видео

Регистрация Запомнить меня
Войти через:  Facebook Google Twitter Vk Yandex Mail.ru

Barenaked Ladies - One And Only - текст песни, таба, видео

Печатать
Просмотров: 130
 One And Only
 by Barenaked Ladies
 Date: 1/19/06
 Transcribed by Michael Swanson
 bnleverything2everyone@gmail.com  

 
  Q=130(8=s8)
         Dsus2                    Dsus2
 4/4
  


play these two staves  for "Hey pass The Ball...." *
|-0---------|------------|-0---------|--------|
|-3---------|------------|-3---------|--------|
|-2---------|------------|-2---------|--------|
|-0---------|------------|-0---------|--------|
|------3----|-(3)--------|------3----|-(3)----|
|-----------|------------|-----------|--------|

|-0---------|------------|-0---------|--------|
|-3---------|------------|-3---------|--------|
|-2---------|------------|-2---------|--------|
|-0---------|------------|-0---------|--------|
|------3----|-(3)--------|------3----|-(3)----|
|-----------|------------|-----------|--------|


play this staff before the second verse
|------0----|------0----|------0----|------0----|
|------3----|------3----|------3----|------3----|
|------2----|------2----|------2----|------2----|
|-0----0----|------0----|-0----0----|------0----|
|-----------|-3---------|-----------|-3---------|
|-----------|-----------|-----------|-----------|

play this during the second verse. note the repeat signs

||-------0----|------0----|------0----|------0----||
||o------3----|------3----|------3----|------3---o||
||-------2----|------2----|------2----|------2----||
||--0----0----|------0----|-0----0----|------0----||
||o-----------|-3---------|-----------|-3--------o||
||------------|-----------|-----------|-----------||


play this during the chorus. once again note the repeat signatures.
||-------0----|------3----|------0----|------3----||
||o------3----|------3----|------3----|------3---o||
||-------2----|------0----|------2----|------0----||
||-------0----|------0----|------0----|------0----||
||o-----------|-----------|-----------|----------o||
||--2---------|-3---------|-2---------|-3---------||

play this between chorus and verse
|---------0------|---------0------|---------0------|---------0------|
|-----3------3---|-----3------3---|-----3------3---|-----3------3---|
|---2---2------2-|---2---2------2-|---2---2------2-|---2---2------2-|
|-0--------------|----------------|-0--------------|----------------|
|----------------|-3--------------|----------------|-3--------------|
|----------------|----------------|----------------|----------------|


play this forthe rest of the verses. watch for repeat.
||------------------|---------------|-----------------|-----------------||
||o-----3-------3---|-----3---------|-----3-------3---|-----3----------o||
||----2---2---2---2-|---2---2-------|---2---2---2---2-|---2---2---------||
||--0---------------|---------------|-0---------------|-----------------||
||o---------2-------|-3-------3-2---|---------2-------|-3-------3-2----o||
||------------------|-------------3-|-----------------|-------------3---||

riff1
|-----------------|
|-----------------|
|-----------------|
|-----------------|
|-3-2-0---0--2----|
|-------3---------|

VERSE 1
Dsus2 Dsus/C 
Hey, pass the ball 

Dsus2      Dsus/C
Why do you run it in circles? 

Dsus2 Dsus/C
Waves crash the wall 

Dsus2      Dsus/C
Soon enough all your hard work will fail 

Dsus2      Dsus/C x2

VERSE 2
Dsus2   Em7     Cadd9  
Wait - hold the phone 

Dsus2        Em7       Cadd9 
I don't know if I can take this 

Dsus2  Em7  Cadd9
Leave me alone 

Dsus2        Em7       Cadd9
I don't know if I can make this work 

CHORUS
D/F#   G        D/F#     G    
See, I know I'm lost and lonely 

D/F#   G        D/F#        G
Please go slow, I'm one and only 


Verse 3 
Dsus2   Em7     Cadd9
I need to think

Dsus2  Em7       Cadd9 
Cause now I've got everyone wondering 
Dsus2   Em7     Cadd9
Pass me a drink 

Dsus2   Em7     Cadd9
Last but not least of my virtues gone 

Dsus2   Em7     Cadd9

VERSE 4
Dsus2   Em7     Cadd9
Lend me a hand 

Dsus2   Em7     Cadd9
I think I could walk if you help me 

Dsus2   Em7     Cadd9
Please understand 

Dsus2   Em7     Cadd9
That if I could talk, I would tell you why 

CHORUS
D/F#   G        D/F#     G 
See, I know I'm lost and lonely 
D/F#      G         D/F#    G     
Please go slow, I'm one and only 

Bridge
F   G     Dsus2   Dsus2/C 
Oooon--ly one 

F   G       Dsus2    Dsus2/C
Aaaal--l or none 

F      G       Dsus2   Dsus2/C  
Myyyyy heart's done 

F    G       D 
Wei--gh--s a ton 

Dsus2   Em7     Cadd9 x2

Dsus2   Em7     Cadd9 Riff1

VERSE 5

Hold me a while 

Dsus2   Em7     Cadd9
Tell me you'll never be leaving 

Dsus2   Em7     Cadd9
I'll walk the mile 

Dsus2   Em7     Cadd9           Riff1
Seeing but not quite believing you 


Outro-Chorus
D/F#   G        D/F#     G
See, I know I'm lost and lonely 

D/F#      G        D/F#     G
Please go slow, I'm one and only 

D/F#   G        D/F#     G 
See, I know I'm lost and lonely 
               (see, I know I'm lost and lonely) 

D/F#      G        D/F#     G
Please go slow, I'm one and only 
              (please go slow, I'm one and only) 

D/F#   G        D/F#     G
And only  

D/F#   G       
And only 

D/F#   G        
And only 
D/F#    G        
One and only 

Dsus2 D
    One

Добавлено: 02.03.2012
Другие материалы по этой песне:
  • Аккорды и текст

Страница создана 02.03.2012
http://primanota.ru/barenaked-ladies/one-and-only-chords.htm
Привет, Гость.
Предлагаем пройти революционный курс по гитаре.
Подарок от PrimaNota.Ru, забирай!