PrimaNota.ru - самый крупный в мире бесплатный архив песенных текстов, аккордов, табулатур и нот


Barenaked Ladies - If I Had 10000 - таба, видео

Регистрация Запомнить меня
Войти через:  Facebook Google Twitter Vk Yandex Mail.ru

Barenaked Ladies - If I Had 10000 - таба, видео

Печатать
Просмотров: 110
		   If I Had $1000000 - Barenaked Ladies
	------------------------------------


Capo 2nd fret.

Intro:
e ---------------------|--------------------|----------------------------
B ---------------------|--------------------|-0h1p0----------------------
G ---------------------|--------------------|-------2-0------------------
D -------------0-------|-------------0------|-----------2-0--------------
A -------0-2h3---0-3-3-|-------0-2h3--0-3-3-|----------------------------
E -0-2-3------------3--|-0-2-3-----------3--|----------------------------

Chords:
(Verse) If I had a million dollars...(etc)

G D C C (Repeat as necesary - when going to chorus, use a D)

(Chorus) Building treeforts, walking to the store, etc.
C D G Em (Repeat as necessary)

Outro:
                             G
e ---------------------------3----------------
B -----------------0h1p0-----0----------------
G -------0-------0-------2-0-0----------------
D -----0-------0-------------0----------------
A ---2-----2h3---------------2----------------
E -3-------------------------3----------------

-Chris

     
Добавлено: 26.07.2013
Другие материалы по этой песне:
  • Аккорды и текст

Страница создана 26.07.2013
http://primanota.ru/barenaked-ladies/if-i-had-10000-chords.htm
Привет, Гость.
Предлагаем пройти революционный курс по гитаре.
Подарок от PrimaNota.Ru, забирай!