PrimaNota.ru - самый крупный в мире бесплатный архив песенных текстов, аккордов, табулатур и нот


Barenaked Ladies - Another postcard chimpanzees - бас-таба, видео

Регистрация Запомнить меня
Войти через:  Facebook Google Twitter Vk Yandex Mail.ru

Barenaked Ladies - Another postcard chimpanzees - бас-таба, видео

Печатать
Просмотров: 92


Intro: 0:05
G -------------------------------------------|
D -------------------------------------------|
A --4---4-0---------2-3-4----4-0-------------|
E ------------2--------------------2---------|

Verse 1: 0:17
G ------------------------------------------------|
D ------------------------------------------------|
A ------------------------------------------------|
E -0/9--0/9-0-0-4-0---0-0-4-0---0-0-4-0---0-0-4-0|

Chorus: 0:39, 1:24, 2:30
G -------------------------------------------|
D -------------------------------------------|  x4
A -------------------------------------------|
E -0-0-4-0--5-5----5h7-7--7h5-5--------------|

Verse 2: 1:01
G ------------------------------------------------|
D ------------------------------------------------|
A ------------------------------------------------|
E -4---9-9---9-11-11---11-9-9---4-0-4-7---------|

G ------------------------------------------------|
D ------------------------------------------------|
A ------------------------------------------------|
E -9-9---9-11-11---11-9-9-------------------------|

G ------------------------------------------------|
D ------------------------------------------------|
A ------------------------------------------------|
E -0-0-4-0---0-0-4-0---0-0-4-0---0-0-4-0----------|

Repeat Chorus


Verse 3: 1:46
G ------------------------------------------------|
D ------------------------------------------------|
A ------------------------------------------------|
E -4---9-9---9-11-11---11-9-9---4-0-4-7---------|

G ------------------------------------------------|
D ------------------------------------------------|
A ------------------------------------------------|
E -9-9---9-11-11---11-9-9-------------------------|

G ------------------------------------------------|
D ------------------------------------------------|
A ------------------------------------------------|
E -0------0------0------0-------------------------|

2:13 (after short break)
G ------------------------------------------------|
D ------------------------------------------------|
A -4--4-0-------2-3-4---4-0-------2-3-4---4-0-----|
E ----------2-----------------2-----------------2-|

Repeat Chorus to the end
Last note:
G-----|
D-----|
A-----|
E--0--|

Добавлено: 17.09.2013
Другие материалы по этой песне:
  • Аккорды и текст

Страница создана 17.09.2013
http://primanota.ru/barenaked-ladies/another-postcard-chimpanzees-chords.htm
Привет, Гость.
Предлагаем пройти революционный курс по гитаре.
Подарок от PrimaNota.Ru, забирай!