PrimaNota.ru - самый крупный в мире бесплатный архив песенных текстов, аккордов, табулатур и нот


Barefoot - Rain - таба, видео

Регистрация Запомнить меня
Войти через:  Facebook Google Twitter Vk Yandex Mail.ru

Barefoot - Rain - таба, видео

Печатать
Просмотров: 169
tabbed by: qweyet Gi

Here's the solo in the latter portion of the song and also the outro.
In the recording, the outro repeats as the song fades.
Leave your criticisms.

  Solo:
e|-------10-18-17-|--8-8-8-10--8---|------10-18-17--13----13/15------------|
B|---11-----------|--11------------|--11-----------------------------------|
G|----------------|----------------|---------------------------------------|
D|----------------|----------------|---------------------------------------|
A|----------------|----------------|---------------------------------------|
E|----------------|----------------|---------------------------------------|

                                       -blends into song-
e|---------------------|---------------------------------------------------|
B|---11--11/13---------|--------13-11-11-11--------------------------------|
G|--------------10-----|-----10--------------------------------------------|
D|------------------10-|--/12----------------------------------------------|
A|---------------------|---------------------------------------------------|
E|---------------------|---------------------------------------------------|

  Outro:
e|-------------------------|----------------10-11-10-----------------------|
B|--------13-11-11-11-10\6-|-11-11-11-10\6----------11----11/13-13-13-13---|
G|-----10------------------|---------------------------10----------------12|
D|-/12---------------------|-----------------------------------------------|
A|-------------------------|-----------------------------------------------|
E|-------------------------|-----------------------------------------------|
Добавлено: 13.04.2012
Вам также может быть интересно:
Другие материалы по этой песне:
  • Аккорды и текст

Страница создана 13.04.2012
http://primanota.ru/barefoot/rain-chords.htm
Привет, Гость.
Предлагаем пройти революционный курс по гитаре.
Подарок от PrimaNota.Ru, забирай!