PrimaNota.ru - самый крупный в мире бесплатный архив песенных текстов, аккордов, табулатур и нот


Barefoot Truth - Reeln - таба, видео

Регистрация Запомнить меня
Войти через:  Facebook Google Twitter Vk Yandex Mail.ru

Barefoot Truth - Reeln - таба, видео

Печатать
Просмотров: 127
-------------------------------------------------------------------------------
                             Reeln' – Barefoot Truth
-------------------------------------------------------------------------------
Tabbed by: Eric White
Email: ewhite1989@yahoo.com
Tuning: DADGBE


(Intro)
e|---------------------------------------------------------------------------|
B|---------------------------------------------------------------------------|
G|---------------------------------------------------------------------------|
D|---------------------------------------------------------------------------|
A|-3333-44--5-5-5-5-5-5-5-5-5-5-5-5--3333-44--5-5-5-5-5-5-5-5-5-5-5-5--------|
D|---------------------------------------------------------------------------|

e|-----------------------------|    |-------------|
B|-----------------------------|    |-------------|
G|-----------------------------|    |-------------|
D|--------------10----------9--|    |--7-5-3------|
A|-3333-44--5---12—--3-4-5—10--|(x)2|--------5-3—-|
D|----------0------------0-----|    |-------------|


(Verse and chorus is basically just this)
e|----------------------------------|
B|----------------------------------|
G|----------------------------------|
D|---------10-----------9-----------|
A|-3-4-5---12—--3-4-5---10----------|
D|-----0-------------0--------------|

I had an ice cream cone and a bottle of wine
To the rhythm we were moving we were doing alright
I started thinking to myself we're just swimming in the sea
And if we swim the same direction it would make it easier to be
Part of the celebration for this thing called life,
you might take it for granted 
ya I know that you might 
But when you're caught up in the current and
the tide is going out take the
next wave in and then get out.

(Chorus)
Cause I'm just reelin', reelin' in the big one.
How come I'm always just 
searching, searching for 
the right one
to come along
Oh to come along and gimme some.

You know we talk about these women like they're fish in the sea
But won't you tell brother what's that make you and me?
It's just the purpose of existence that we're searching for
but when I've caught one, how come I want more?
I keep burning the candle at  both ends and I already know how the story ends,
I start pulling too hard and my line begins to break so I reel in the hook and reset the bait,
I cast my line out and before too long I start to get a bite and then the fight is on.
I keep my eye on the prize and my head on tight casue I'm 
gonna bring this one home tonite.

(Chorus)

 


(Bridge)
e|------------------------------------------------------------------|
B|------------------------------------------------------------------|
G|------------------------------------------------------------------|
D|------------------------------/7-5-3-5-3-0------------------3--/5-|
A|-12\--0---3-3—-3/5--- 12\--0---------------12\-0-3-3--3\5---3--/5-|
D|--0---0----------------0---0----------------0--0------------3--/5-|  (x 2)

e|------------------------------------------------------------------|
B|------------------------------------------------------------------|
G|--------------------------------------------------------------4---|
D|------------------------------/7-5-3-5-3-0------------------3---5-|
A|-12\--0---3-4-5-------12\--0---------------12\-0-3-3--3\5--3----5-|
D|--0---0----------------0---0----------------0--0----------3-------|

e|------------------------------------------------------------------|
B|------------------------------------------------------------------|
G|------------------------------------------------------------------|
D|------------------------------/7-5-3-5-3-0------------------3--/5-|
A|-12\--0---3-3—-3/5--- 12\--0---------------12\-0-3-3--3\5---3--/5-|
D|--0---0----------------0---0----------------0--0------------3--/5-|

Oh well its just another song for those summer nights
And when your body lets go you know the mood is right
So jump hold of the rhythm and don't let go
well we can take it fast  or we can move real slow
but if it ain't working out I don't mean to offend
but go back to the sea to get caught again.
Cause its just another song song for the summertime 
all because an ice cream cone and a bottle of wine.

(Chorus)

Добавлено: 09.05.2012
Другие материалы по этой песне:
  • Аккорды и текст

Страница создана 09.05.2012
http://primanota.ru/barefoot-truth/reeln-chords.htm
Привет, Гость.
Предлагаем пройти революционный курс по гитаре.
Подарок от PrimaNota.Ru, забирай!