PrimaNota.ru - самый крупный в мире бесплатный архив песенных текстов, аккордов, табулатур и нот


Barefoot Jerry - Friends - таба, видео

Регистрация Запомнить меня
Войти через:  Facebook Google Twitter Vk Yandex Mail.ru

Barefoot Jerry - Friends - таба, видео

Печатать
Просмотров: 76
Artist: Barefoot Jerry
Song : Friends (Barefoot Jerry 1973)
Tuning: Standard
Transcriber: Phil Champ (phil.champ@ntlworld.com)


E||------------------------|--------------------------||
B||-------------3----3-----|--------3-----------------||
G||*------------0----0-----|--------0----------------*||
D||*-------2------------2--|-----0--------0-----2----*||
A||------------------------|--0-----------------------||
E||---0--------------------|-----------3-----0--------||



||-----------------------|-----------------------||
||-------------3---------|------------3----------||
||*------------0---------|------------0---------*||
||*-------2---------2----|-------2--------------*||
||-----------------------|--0--------------------||
||---0-------------------|-----------------3-----||


                                               
|----------------------|------------------------|
|------------3---------|------------3-----------|
|------------0---------|------------0-----------|
|-------2---------2----|-------2----------------|
|----------------------|--0---------------0h2h0-|
|--0-------------------|------------------------|


                                                 
||---0--------------2----|------0----3--2--0-----||
||--------0----3---------|-----------------------||
||*----------------------|----------------------*||
||*----------------------|----------------------*||
||-----------------------|-----------------------||
||-----------------------|-----------------------||


                                                                  
||---0----0----0----0----|--0----------------|--0----0----0----2----|
||---0----3----1----0----|--1----------------|--0----3----1----3----|
||*--0----0----0----0----|--2----------------|--0----0----0----2----|
||*--2----2----2----2----|--3----------------|--2----2----2----0----|
||---3----3----3----3----|--3----------------|--3----3----3----0----|
||-----------------------|--1----------------|----------------------|


                      
|--0----2-------------||
|--1----3-------------||
|--2----2------------*||
|--2----0------------*||
|--0----0-------------||
|---------------------||


     
Добавлено: 26.07.2013
Другие материалы по этой песне:
  • Аккорды и текст

Страница создана 26.07.2013
http://primanota.ru/barefoot-jerry/friends-chords.htm
Привет, Гость.
Предлагаем пройти революционный курс по гитаре.
Подарок от PrimaNota.Ru, забирай!