PrimaNota.ru - самый крупный в мире бесплатный архив песенных текстов, аккордов, табулатур и нот


Bare Jams - Fast Feet - бас-таба, видео

Регистрация Запомнить меня
Войти через:  Facebook Google Twitter Vk Yandex Mail.ru

Bare Jams - Fast Feet - бас-таба, видео

Печатать
Просмотров: 25
Intro: 0:19

G -------------------------------------
D -------------------------------------
A ----------------------------------0/2
E -0----0-0---0----0/2----2-2---2------

Verse: 0:24

G ---------------------------------------------------------------------------------------------------
D ------0-----------0/2---2p0h2---4-7h9-12--------12--------------12h13h14--/16-14p12----12----------
A -2---2---2-0---0-0-----------------------14---14--14-12---12-12---------------------14---14-12-9---
E ---------------------------------------------------------------------------------------------------

G ---------------------------------------------------------------------------------------------------
D ------0-----------0/2---2p0h2---4-7h9-12--------12-------------------------------------------------
A -2---2---2-0---0-0-----------------------14---14--14-12---12-12-/7~---------------7777777777777777-
E ---------------------------------------------------------------------------------------------------

Pre-Chorus: 0:49

G ----------------------------------------------------------
D ---------4-2-0-2-----------0h2--------------0-----------0-
A -2-2---2---------0--0--0h2----------0-0-2-0---2---0-0-2---
E ----------------------------------------------------------

G ----------------------------------------------------------
D ---------4-2-0-2-----------0h2-------7---7h9--9p0-2-4-----
A -2-2---2---------0--0--0h2-----5h7/9---9------------------
E ----------------------------------------------------------

Chorus: 1:00

G ---------------2---------------2----------
D --------------4---------------4-----------
A -22-222-222-22---22-222-222-22------------
E ------------------------------------------

G ----4-2---------------------------------------
D -/55-----544-4420-----------------------------
A -----------------02----0/2----0/2--2--2-2-2-2-
E ----------------------------------------------

G ----4-2---------------------------------------
D -/55-----544-4420-----------------------------
A -----------------02----0/2----0/2--2--2-2-2-2-
E ----------------------------------------------

G ----4-2-------------4-4-4-4-4-4---------------2---------
D -/55-----544-4402522-2-2-2-2-2-2-0/2/4---4-4-----4-2----
A -----------------------------------------------------5\-
E --------------------------------------------------------

Verse: 1:31

G ---------------------------------------------------------------------------------------------------
D ------0-----------0/2---2p0h2---4-7h9-12--------12--------------12h13h14--/16-14p12----12----------
A -2---2---2-0---0-0-----------------------14---14--14-12---12-12---------------------14---14-12-9---
E ---------------------------------------------------------------------------------------------------

G --------------------------------------------------------------------------------------------------- hold 
D ------0-----------0/2---2p0h2---4-7h9-12--------12------------------------------------------------- for 
A -2---2---2-0---0-0-----------------------14---14--14-12---12-12-/7~-------------------------7/9/10~ next
E --------------------------------------------------------------------------------------------------- section

Break: 1:53

G -------------------------------------------------------------------------
D -----9-----7-------------------7---------9-----7------------------7------
A -10~----\9-------7-------5h7/9---7-9-10~----\9-------7~-----5h7/9--9/10~- (hold for next line)
E ----------------------5h7--------------------------------5h7-------------

G --------------------------------------------------------------
D -----9-----7-------------------7------9-----7-------------2-4-
A -10~----\9-------7~------5h7/9--9/10~----\9----9/10~----------
E ---------------------5h7--------------------------------------

Build up: 2:16

G --------------4---------------2-----------------------------------
D -55-555-555-55-5544-444-444-44-4422-222-222-220-022-222-222-244-4-
A -----------------------------------------------2------------------
E ------------------------------------------------------------------

G --------------4---------------2-----------------------------------
D -55-555-555-55-5544-444-444-44-4422-222-222-220-022-222-222-244-4-
A -----------------------------------------------2------------------
E ------------------------------------------------------------------

G --------------4---------------2------------------------------7----
D -55-555-555-55-5544-444-444-44-4422-222-222-220-022-------7h9-9-4-
A -----------------------------------------------2---0h2/7h9--------
E ------------------------------------------------------------------

G --------------4---------------------------------------------------
D -55-555-555-55-5544-444-444-440245---5---5---5---5---5---5---4202-
A ------------------------------------------------------------------
E ------------------------------------------------------------------

Verse: 2:59

G ---------------------------------------------------------------------------------------------------
D ------0-----------0/2---2p0h2---4-7h9-12--------12--------------12h13h14--/16-14p12----12----------
A -2---2---2-0---0-0-----------------------14---14--14-12---12-12---------------------14---14-12-9---
E ---------------------------------------------------------------------------------------------------

G ---------------------------------------------------------------------------------------------------
D ------0-----------0/2---2p0h2---4-7h9-12--------12-------------------------------------------------
A -2---2---2-0---0-0-----------------------14---14--14-12---12-12-/7~---------------7777777777777777-
E ---------------------------------------------------------------------------------------------------

Chorus: 3:23

G ----------------------------------------------------------
D ---------4-2-0-2-----------0h2--------------0-----------0-
A -2-2---2---------0--0--0h2----------0-0-2-0---2---0-0-2---
E ----------------------------------------------------------

G -------------------------------------------7--------------
D ---------4-2-0-2-----------0h2-------7-79-----97----------
A -2-2---2---------0--0--0h2-----5h7/9--9---------97--------
E ----------------------------------------------------------

G ----------------------------------------------------------
D ---------4-2-0-2-----------0h2--------------0-----------0-
A -2-2---2---------0--0--0h2----------0-0-2-0---2---0-0-2---
E ----------------------------------------------------------

G -----------------------------------------7h9-9/11-97------
D ---------4-2-0-2-----------0h2--------7h9-----------97-9~\
A -2-2---2---------0--0--0h2-----5h7/9----------------------
E ----------------------------------------------------------


Добавлено: 13.08.2015
Другие материалы по этой песне:
  • Аккорды и текст

Страница создана 13.08.2015
http://primanota.ru/bare-jams/fast-feet-chords.htm
Привет, Гость.
Предлагаем пройти революционный курс по гитаре.
Подарок от PrimaNota.Ru, забирай!