PrimaNota.ru - самый крупный в мире бесплатный архив песенных текстов, аккордов, табулатур и нот


Barclay James Harvest - Moongirl - аккорды и текст, видео

Регистрация Запомнить меня
Войти через:  Facebook Google Twitter Vk Yandex Mail.ru

Barclay James Harvest - Moongirl - аккорды и текст, видео

Печатать
Просмотров: 126
Moongirl
Barclay James Harvest
-----------------------------------------------------------------------------
                                          Artist - Barclay James Harvest
                                         ********************************
                                                 Song - Moon Girl 
                                                ******************
                                          Album - Time Honoured Ghosts 
                                         ******************************
                                              Tabbed By - Ayreon77
                                             **********************
-----------------------------------------------------------------------------
Tuning = Standard

INTRO SOLO
***********
e|------------------|----10-12-|-12-12-12-10------|----------|-------10-|----------|-------10-|
B|--b---10-12-13-12-|-13-------|-------------13---|-10-12-13-|-12-13----|-10-12-13-|-12-13----|
G|-12---------------|----------|----------------9-|----------|----------|----------|----------|
D|------------------|----------|------------------|----------|----------|----------|----------|
A|------------------|----------|------------------|----------|----------|----------|----------|
E|------------------|----------|------------------|----------|----------|----------|----------|


e|-10-------------|-10-------brbrbrbr-|
B|-----13--12--10-|-----13--12--------|
G|----------------|-------------------|
D|----------------|-------------------|
A|----------------|-------------------|
E|----------------|-------------------|


-----------------------------
VERSE 1
********   
Am       E           C             D
  Voices in the air, drifting from afar
F                   Am      F                  E
  Evening finds her waking,   dancing with the stars
Am             E                      C             D 
  And when I'm waiting for the sun to smile upon my face
F                    Am        E                 Am
  Moon girl's softly sleeping,   daylight dreams away

E C D Bb Am Bb E

-----------------------------
VERES 2
********
Am        E            C                   D
  Silence stepping by, lightly on the ground
F               Am         F               E
  Moving like a butterfly,   never makes a sound
Am             E                      C              D
  And when I'm waiting for the sun to shine so I can see
F                   Am         D               F
  Comes the dancing moon girl,   watching over me

-----------------------------
ORGAN - F   C            Bb     E
******       (Love of my life)

-----------------------------
CHORUS
*******
Am   E    F          G        Am
Moon girl shines her light on me
Am   E     F         G     C
Moon girl, she's the one I see
E                        C               F
  Takes me to the places where I long to be
    D             F
She moves me, she moves me

-----------------------------
SOLO
*****
e|------------------|----10-12-|-12-12-12-10------|----------|-------10-|----------|-------10-|
B|--b---10-12-13-12-|-13-------|-------------13---|-10-12-13-|-12-13----|-10-12-13-|-12-13----|
G|-12---------------|----------|----------------9-|----------|----------|----------|----------|
D|------------------|----------|------------------|----------|----------|----------|----------|
A|------------------|----------|------------------|----------|----------|----------|----------|
E|------------------|----------|------------------|----------|----------|----------|----------|


e|-10-------------|-10-------brbrbrbr-|
B|-----13--12--10-|-----13--12--------|
G|----------------|-------------------|
D|----------------|-------------------|
A|----------------|-------------------|
E|----------------|-------------------|


-----------------------------
CHORUS
*******
Am   E    F          G        Am
Moon girl shines her light on me
Am   E     F         G     C
Moon girl, she's the one I see
E                        C               F
  Takes me to the places where I long to be
    D             F
She moves me, she moves me

-----------------------------
ORGAN - Am E C D  Am D E
******  Am E C D  F Am D E

        Am E C D F Am D E X2 



ENJOY...........
Добавлено: 29.04.2015
Другие материалы по этой песне:
  • Аккорды и текст

Страница создана 11.03.2012
http://primanota.ru/barclay-james-harvest/moongirl-chords.htm
Привет, Гость.
Предлагаем пройти революционный курс по гитаре.
Подарок от PrimaNota.Ru, забирай!