PrimaNota.ru - самый крупный в мире бесплатный архив песенных текстов, аккордов, табулатур и нот


Barclay James Harvest - In My Life - аккорды и текст, видео

Регистрация Запомнить меня
Войти через:  Facebook Google Twitter Vk Yandex Mail.ru

Barclay James Harvest - In My Life - аккорды и текст, видео

Печатать
Просмотров: 124
Уроки эстрадного вокала в Санкт-Петербурге
In My Life
Barclay James Harvest
-----------------------------------------------------------------------------
                                          Artist - Barclay James Harvest
                                         ********************************
                                                Song - In My Life 
                                               *******************
                                           Album - Time Honoured Ghosts   
                                          ******************************
                                               Tabbed By - Ayreon77
                                              **********************
-----------------------------------------------------------------------------
Tuning = Standard

INTRO
******
  GUITAR 1                                                                        
e|---p---p-------------p------|-------------------h-p---------|
B|--1-0-1-0----p------1-0-1---|-1--3--5--6-5-3---3-5-3---1-1--|
G|------------2-0-2-----------|-------------------------------|
D|----------------------------|-------------------------------|
A|----------------------------|-------------------------------|
E|----------------------------|-------------------------------|
 |                                                            |
 |GUITAR 2                                                    |
e|---p-----p--------------p------|-------12-12------p---------|
B|-13-12-13-12---p------13-12-13-|-13-15-------15-13-12-------|
G|-------------14-12-14----------|----------------------12-14-|
D|-------------------------------|----------------------------|
A|-------------------------------|----------------------------|
E|-------------------------------|----------------------------|



  GUITAR 1                                     br  b
e|---p---p-------------p------|----------3--0--3---3-|
B|--1-0-1-0----p------1-0-1---|-1--3--5--------------|
G|------------2-0-2-----------|----------------------|
D|----------------------------|----------------------|
A|----------------------------|----------------------|
E|----------------------------|----------------------|
 |                                                   |
 |GUITAR 2                                     br  b |
e|---p-----p--------------p------|-------12-12-15-15-|
B|-13-12-13-12---p------13-12-13-|-13-15-------------|
G|-------------14-12-14----------|-------------------|
D|-------------------------------|-------------------|
A|-------------------------------|-------------------|
E|-------------------------------|-------------------|


  00:16
  GUITAR 1
   br  b   br
e|-3---3-|-3--0--br--h-p----|---p-----p--------------p-------|----------|------5---|------2---|
B|-------|-------3---1-3-1--|--1-0---1-0----p-------1-0-1----|---1-3-5--|--3-5-----|--5-3-----|
G|-------|------------------|--------------2-0-2-------------|----------|----------|----------|
D|-------|------------------|--------------------------------|----------|----------|----------|
A|-------|------------------|--------------------------------|----------|----------|----------|
E|-------|------------------|--------------------------------|----------|----------|----------|
 |                                                                                            |
 |GUITAR 2                                                                                    |
 |  br b   br                                                                                 |
e|-15-15-|-15-12-br---h------|---p-----p--------------p------|-------12-|----12-15-|-12----14-|
B|-------|-------15-13-15-13-|-13-12-13-12---p------13-12-13-|-13-15----|-15-------|----15----|
G|-------|-------------------|-------------14-12-14----------|----------|----------|----------|
D|-------|-------------------|-------------------------------|----------|----------|----------|
A|-------|-------------------|-------------------------------|----------|----------|----------|
E|-------|-------------------|-------------------------------|----------|----------|----------|


  GUITAR 2         b    rb
e|----15-17-20-17-15-|-15--12--b-|--rbp---------|
B|-17----------------|--------15-|-15--13-15-13-|
G|-------------------|-----------|--------------|
D|-------------------|-----------|--------------|
A|-------------------|-----------|--------------|
E|-------------------|-----------|--------------|
 

---------------------------------
VERSE 1
*********
      Am          F       G    Am      F  G
In my life I have seen so many things
          Am            F        G         Am      F  G
Some were true and some were not what they seemed
      Am             F        G         Am    F  G
In my life I've seen love and I've seen loss
              Am           F       G         Am                  F Am E C#m
There've been times when I did not count the cost (the Cost)..................

---------------------------------
VERSE 2
********
       Am        F           G     Am    F  G
I have been to a place where chaos rules
       Am           F       G          Am    F  G
In the caves of the talking stoned the fools
         Am                F         G          Am   F  G
Seen the stars plant their seeds and watch them grow
        Am          F        G     Am                  F Am E C#m Am
Just to keep mister reap but never sow (never sow)....................

---------------------------------
CHORUS
*******      
      C#m            Am        B         C#m   Am F#
In my life I've seen greed and I've seen hate
         C#m      Am         B       C#m    Am F#
Seen the first to accuse the last to praise
         C#m          Am       B      C#m
Tried so hard to find just one saving grace

---------------------------------
BRIDGE
*******
E             B             D
    But I was young did not know
             C
Grace is for God
            D
Greed is to know
                     C
Mister middle of the road
G                Am   F  
   Reap what you sow
G                Am   F  
   Reap what you sow
G                Am   F  
   Reap what you sow
G                Am   F  
   Reap what you sow

---------------------------------
OUTRO
******
Same As INTRO



ENJOY...........


Добавлено: 05.12.2015
Другие материалы по этой песне:
  • Аккорды и текст

Страница создана 12.03.2012
http://primanota.ru/barclay-james-harvest/in-my-life-chords.htm
Привет, Гость.
Предлагаем пройти революционный курс по гитаре.
Подарок от PrimaNota.Ru, забирай!