PrimaNota.ru - самый крупный в мире бесплатный архив песенных текстов, аккордов, табулатур и нот


Barbra Streisand - Women In Love - таба, видео

Регистрация Запомнить меня
Войти через:  Facebook Google Twitter Vk Yandex Mail.ru

Barbra Streisand - Women In Love - таба, видео

Печатать
Просмотров: 486
---------------------
* Barbra Streisand *
* Women in Love     *
* Guilty 1980       *
---------------------
                                    Intro


      
     q    q  q    q   q   q   q    q    q   q   q   q    q    q    q   q
e |-----------------------------------|-----------------------------------|
B |-16s--14--11--16s--14--11--14--16s-|-14--11--14--11L-------11----------|
G |-15s--13--11--15s--13--11--13--15s-|-13--11--13--11---13-------15--11L-|
D |-----------------------------------|------------------13---11--15--13--|
A |-----------------------------------|-----------------------11--16--14L-|
E |-----------------------------------|-----------------------------------|

     q    q    q    q     q    q    q    q        c     q   q
e|--------------------------------------------|--------------------------||
B|-------------11-------------------11--------|---------11---14----------||
G|---11---11--------11L---11---11--------11L--|---11----11---11----------||
D|---15--------13---13----15--------13---13L--|---13----13---15----------||
A|---14---14---14---14L---14---14---14---14L--|---14----14---16----------||
E|--------------------------------------------|--------------------------||

Legend

L - tied note           x - dead note           h - hammer on/pull off  
b - bend                s - slide               ~ - vibrato     
g - ghost note          > - accentuated note    t - trill 
M - palm mute           . - staccato            P - popping (bass)
n - pick stroke down    + - tapping             W - wide vibrato 
< - fade in             w - whammy bar          = - tremolo picking 
v - brush up            ^ - brush down          V - pick stroke up  



whole note - sb - semibreve
  1/2 note - m - minim
  1/4 note - c - crotchet
  8th note - q - quaver
16th note - sq - semiquaver
32nd note - dq - demisemiquaver
64th note - hq - hemidemisemiquaver



Добавлено: 15.06.2012
Другие материалы по этой песне:

Страница создана 15.06.2012
http://primanota.ru/barbra-streisand/women-in-love-chords.htm
Привет, Гость.
Предлагаем пройти революционный курс по гитаре.
Подарок от PrimaNota.Ru, забирай!