PrimaNota.ru - самый крупный в мире бесплатный архив песенных текстов, аккордов, табулатур и нот


Barbara Lewis - Hello Stranger - текст песни, таба, видео

Регистрация Запомнить меня
Войти через:  Facebook Google Twitter Vk Yandex Mail.ru

Barbara Lewis - Hello Stranger - текст песни, таба, видео

Печатать
Просмотров: 240
Уроки эстрадного вокала в Санкт-Петербурге
Авторы музыки: Barbara Lewis

HELLO STRANGER

As recorded by Barbara Lewis
(From the 1963 Album HELLO STRANGER)

Words and Music by Barbara Ann Lewis

Transcribed by Slowhand


Gtr I (E A D G B E) - 'Electric Guitar'
Gtr II (E A D G B E) - 'Organ'


 Intro
  Q=98
 4/4
  Gtr I (Clean El. Gtr.)
  E e e E E e E e   E   e e E E   e E e
|---7-7-----7---7-|-----7-7-------7---7-|
|---8-8-----8---8-|-----8-8-------8---8-|
|-----------------|---------------------|
|-----------------|---------------------|
|-----------------|---------------------|
|-----------------|---------------------|
|
| Gtr II (Organ arr. for Gtr.)
| E E E E E E E E   S S Q   E S S Q   E
|-----------------|---------------------|
|-----------------|---------------------|
|-----------------|---------------------|
|-----------5-----|-----5---------5-----|
|---7-7-7-7---7-5-|-5-7-------5-7-------|
|-----------------|---------------------|


  E  e  e E E  e E  e   E e e e e E e E
|---10-10-----10---10-|---3-3-3-3---3----||
|---10-10-----10---10-|---3-3-3-3---3----||
|---------------------|------------------||
|---------------------|------------------||
|---------------------|------------------||
|---------------------|------------------||
|
| E  E  E E E  E E  E   E E E E E E E E
|---------------------|------------------||
|---------------------|------------------||
|--------------5------|------------------||
|----7--7-7-7----5--7-|-7-5-5-5-5---5----||
|---------------------|-8----------------||
|---------------------|------------------||


   1st - 3rd Verses
    $
    E e e E E e E e   E e e E E e E e
||----7-7-----7---7-|---7-7-----7---7-|
||o---8-8-----8---8-|---8-8-----8---8-|
||------------------|-----------------|
||------------------|-----------------|
||o-----------------|-----------------|
||------------------|-----------------|


  E  e  e E E  e E  e   E  e  e E E  e E  e
|---10-10-----10---10-|---10-10-----10---10--|
|---10-10-----10---10-|---10-10-----10---10--|
|---------------------|----------------------|
|---------------------|----------------------|
|---------------------|----------------------|
|---------------------|----------------------|


  E  e  e E E  e E  e   E  e  e E E  e E  e
|---12-12-----12---12-|---12-12-----12---12-|
|---12-12-----12---12-|---12-12-----12---12-|
|---------------------|---------------------|
|---------------------|---------------------|
|---------------------|---------------------|
|---------------------|---------------------|


  E  e  e E E  e E  e   E  e  e E E  e E  e
|---10-10-----10---10-|---10-10-----10---10-|
|---10-10-----10---10-|---10-10-----10---10-|
|---------------------|---------------------|
|---------------------|---------------------|
|---------------------|---------------------|
|---------------------|---------------------|


  E e e E E e E e   E e e E E e E e
|---7-7-----7---7-|---7-7-----7---7-|
|---8-8-----8---8-|---8-8-----8---8-|
|-----------------|-----------------|
|-----------------|-----------------|
|-----------------|-----------------|
|-----------------|-----------------|


  E  e  e E E  e E  e   E  e  e E E  e E  e
|---10-10-----10---10-|---10-10-----10---10-|
|---10-10-----10---10-|---10-10-----10---10-|
|---------------------|---------------------|
|---------------------|---------------------|
|---------------------|---------------------|
|---------------------|---------------------|


  E  e  e E E  e E  e   E  e  e E E  e E  e
|---12-12-----12---12-|---12-12-----12---12-|
|---12-12-----12---12-|---12-12-----12---12-|
|---------------------|---------------------|
|---------------------|---------------------|
|---------------------|---------------------|
|---------------------|---------------------|


                        1.
               To Coda
  E  e  e E E  e E  e    E e e e e e e e
|---10-10-----10---10--|---3-3-3-3-3-3-3---||
|---10-10-----10---10--|---3-3-3-3-3-3-3--o||
|----------------------|-------------------||
|----------------------|-------------------||
|----------------------|------------------o||
|----------------------|-------------------||


                    Bridge
  2.
  E e e e e E e E    E e e E E e E e   E e e E E e E e
|---3-3-3-3---3---||---7-7-----7---7-|---7-7-----7---7-|
|---3-3-3-3---3---||---8-8-----8---8-|---8-8-----8---8-|
|-----------------||-----------------|-----------------|
|-----------------||-----------------|-----------------|
|-----------------||-----------------|-----------------|
|-----------------||-----------------|-----------------|


  E  e  e E E  e E  e   E  e  e E E  e E  e
|---10-10-----10---10-|---10-10-----10---10-|
|---10-10-----10---10-|---10-10-----10---10-|
|---------------------|---------------------|
|---------------------|---------------------|
|---------------------|---------------------|
|---------------------|---------------------|


  E  e  e E E  e E  e   E  e  e E E  e E  e
|---12-12-----12---12-|---12-12-----12---12-|
|---12-12-----12---12-|---12-12-----12---12-|
|---------------------|---------------------|
|---------------------|---------------------|
|---------------------|---------------------|
|---------------------|---------------------|


                            D.S. al Coda
  E  e  e E E  e E  e   E e e e e e e E
|---10-10-----10---10-|---3-3-3-3-3-3-----||
|---10-10-----10---10-|---3-3-3-3-3-3-----||
|---------------------|-------------------||
|---------------------|-------------------||
|---------------------|-------------------||
|---------------------|-------------------||


                    Outro
  &
  E e e e e E e E    E e e E E e E e   E e e E E e E e
|---3-3-3-3---3---||---7-7-----7---7-|---7-7-----7---7-|
|---3-3-3-3---3---||---8-8-----8---8-|---8-8-----8---8-|
|-----------------||-----------------|-----------------|
|-----------------||-----------------|-----------------|
|-----------------||-----------------|-----------------|
|-----------------||-----------------|-----------------|


  E  e  e E E  e E  e   E  e  e E E  e E  e
|---10-10-----10---10-|---10-10-----10---10-|
|---10-10-----10---10-|---10-10-----10---10-|
|---------------------|---------------------|
|---------------------|---------------------|
|---------------------|---------------------|
|---------------------|---------------------|


  E  e  e E E  e E  e   E  e  e E E  e E  e
|---12-12-----12---12-|---12-12-----12---12-|
|---12-12-----12---12-|---12-12-----12---12-|
|---------------------|---------------------|
|---------------------|---------------------|
|---------------------|---------------------|
|---------------------|---------------------|


  E  e  e E E  e E  e   E  e  e E E  e E  e
|---10-10-----10---10-|---10-10-----10---10-*|
|---10-10-----10---10-|---10-10-----10---10-*|
|---------------------|---------------------*|
|---------------------|---------------------*|
|---------------------|---------------------*|
|---------------------|---------------------*|


Duration Legend
---------------
W - whole; H - half; Q - quarter; E - 8th; S - 16th; T - 32nd; X - 64th; a - acciaccatura
+ - note tied to previous; . - note dotted; .. - note double dotted
Uncapitalized letters represent notes that are staccato (1/2 duration)
Irregular groupings are notated above the duration line
Duration letters will always appear directly above the note/fret number it represents the
duration for.  Duration letters with no fret number below them represent rests.  Multi-
bar rests are notated in the form Wxn, where n is the number of bars to rest for.  Low
melody durations appear below the staff

Tablature Legend
----------------
 h   - hammer-on
 p   - pull-off
 b   - bend
 pb  - pre-bend
 r   - bend release (if no number after the r, then release immediately)
 /\  - slide into or out of (from/to "nowhere")
 s   - legato slide
 S   - shift slide
  - natural harmonic
[n]  - artificial harmonic
n(n) - tapped harmonic
 ~   - vibrato
 tr  - trill
 T   - tap
 TP  - trem. picking
 PM  - palm muting
\n/  - tremolo bar dip; n = amount to dip
 \n  - tremolo bar down
 n/  - tremolo bar up
/n\  - tremolo bar inverted dip
 =   - hold bend; also acts as connecting device for hammers/pulls
 <>  - volume swell (louder/softer)
 x   - on rhythm slash represents muted slash
 o   - on rhythm slash represents single note slash

Misc Legend
-----------
 |  - bar
||  - double bar
||o - repeat start
o|| - repeat end
*|  - double bar (ending)
 :  - bar (freetime)
 $  - Segno
 &  - Coda
Tempo markers -  = BPM(8/16=s8/s16), where s8 = swing 8ths, s16 = swing 16ths
Добавлено: 13.09.2015
Другие материалы по этой песне:

Страница создана 13.03.2012
http://primanota.ru/barbara-lewis/hello-stranger-chords.htm
Привет, Гость.
Предлагаем пройти революционный курс по гитаре.
Подарок от PrimaNota.Ru, забирай!