PrimaNota.ru - самый крупный в мире бесплатный архив песенных текстов, аккордов, табулатур и нот


Barb Wire Dolls - Rattle And Break - таба, видео

Регистрация Запомнить меня
Войти через:  Facebook Google Twitter Vk Yandex Mail.ru

Barb Wire Dolls - Rattle And Break - таба, видео

Печатать
Просмотров: 109
.-------------------------------------------.
| Artist        : Barb Wire Dolls           |
| Album         : Fuck The Pussies          |
| Track         : Rattle & Break            |
|-------------------------------------------|
| Tabbed by     : Ricky Thomson             |
| Date          : Sat 26th May 2012         |
| Contact Email : punkalert@gmail.com       |
'-------------------------------------------'

Official band website can be found here:
http://www.barbwiredolls.com/


x  = rake
\  = slide down
pm = palm mute


Order
 - intro 
 - verse  [x4]
 - chorus [x2]
 - intro
 - verse  [x4]
 - chorus [x2]
 - intro
 - solo   [x2]
 - bridge [x4]
 - chorus [x2]
 - intro
 
 
 
[intro]

e|-----------------------------------------------------------------|------|
B|-----------------------------------------------------------------|------|
G|-----------------------------------------------------------------|------|
D|--x-x-7---x-x-7---x-x-7---x-x-7---x-x-7---x-x-7---x-x-7---x-x-7--|-xxx--|
A|--x-x-7---x-x-7---x-x-7---x-x-7---x-x-7---x-x-7---x-x-7---x-x-7--|-xxx--|
E|--x-x-5---x-x-5---x-x-5---x-x-5---x-x-5---x-x-5---x-x-5---x-x-5--|-xxx--|



[verse]

e|-------------------------------------------------------------------|
B|-------------------------------------------------------------------|
G|------------------7--7--7-7-7-7------------------------------------|
D|--5--5--5-5-5-5---7--7--7-7-7-7---x-x-7---x-x-7---x-x-7---x-x-7-\--|
A|--5--5--5-5-5-5---5--5--5-5-5-5---x-x-7---x-x-7---x-x-7---x-x-7-\--|
E|--3--3--3-3-3-3-------------------x-x-5---x-x-5---x-x-5---x-x-5-\--|



[chorus]

e|-------------------------------------------------|
B|-------------------------------------------------|
G|-------------------------------------------------|
D|--10-10-10-10-10-10-10--12-12-12-12-12-12-12-12--|
A|--10-10-10-10-10-10-10--12-12-12-12-12-12-12-12--|
E|-- 8--8--8--8--8--8--8--10-10-10-10-10-10-10-10--|

e|-------------------------------------------------|
B|-------------------------------------------------|
G|-------------------------------------------------|
D|--14-14-14-14-14-14-14--15-15-15-15-15-15-15-15--|
A|--14-14-14-14-14-14-14--15-15-15-15-15-15-15-15--|
E|--12-12-12-12-12-12-12--13-13-13-13-13-13-13-13--|




[solo]

e|-----0------0------0------0------0-------------------------------------|
B|--3------3------3------3------3------3---------------------------------|
G|-----------------------------------------------------------------------|
D|----------------------------------------x-x-7---x-x-7---x-x-7---x-x-7--|
A|----------------------------------------x-x-7---x-x-7---x-x-7---x-x-7--|
E|----------------------------------------x-x-5---x-x-5---x-x-5---x-x-5--|



[bridge]

pm[  . . . . . . . . . . . . . . . .                                    ]
 e|---------------------------------------------------------------------|
 B|---------------------------------------------------------------------|
 G|------------------7-7-7-7-7-7-7-7------------------------------------|
 D|--5-5-5-5-5-5-5-5-7-7-7-7-7-7-7-7---x-x-7---x-x-7---x-x-7---x-x-7-\--|
 A|--5-5-5-5-5-5-5-5-5-5-5-5-5-5-5-5---x-x-7---x-x-7---x-x-7---x-x-7-\--|
 E|--3-3-3-3-3-3-3-3-------------------x-x-5---x-x-5---x-x-5---x-x-5-\--|



Have fun :-D
Добавлено: 09.06.2013
Вам также может быть интересно:
Другие материалы по этой песне:
  • Аккорды и текст

Страница создана 09.06.2013
http://primanota.ru/barb-wire-dolls/rattle-and-break-chords.htm
Привет, Гость.
Предлагаем пройти революционный курс по гитаре.
Подарок от PrimaNota.Ru, забирай!