PrimaNota.ru - самый крупный в мире бесплатный архив песенных текстов, аккордов, табулатур и нот


Barb Wire Dolls - Punk The Fussies Fuck The Pussycat Dolls - таба, видео

Регистрация Запомнить меня
Войти через:  Facebook Google Twitter Vk Yandex Mail.ru

Barb Wire Dolls - Punk The Fussies Fuck The Pussycat Dolls - таба, видео

Печатать
Просмотров: 111
Уроки эстрадного вокала в Санкт-Петербурге
.--------------------------------------------.
| Artist        : Barb Wire Dolls            |
| Album         : Fuck The Pussies           |
| Track         : Punk The Fussies!          |
|                 (Fuck The Pussycat Dolls!) |
|--------------------------------------------|
| Tabbed by     : Ricky Thomson              |
| Date          : Mon 28th May 2012          |
| Contact Email : punkalert@gmail.com        |
'--------------------------------------------'

Tuning: standard

pm = palm mute
x  = rake


[intro]

 e|-----------------------------------------------|
 B|-----------------------------------------------|
 G|--9-9-9-----------------7-7-7------------------|
 D|--9-9-9-9-9-9-7-xxxxxxx-7-7-7-7-7-7-5-xxxxxxx--|
 A|--7-7-7-9-9-9-7-xxxxxxx-5-5-5-7-7-7-5-xxxxxxx--|
 E|--------7-7-7-5-xxxxxxx-------5-5-5-3-xxxxxxx--|


 e|------------------------0-0-0-0-0-0-0-0-0-0-0--|
 B|------------------------0-0-0-0-0-0-0-0-0-0-0--|
 G|--5-5-5-----------------1-1-1-1-1-1-1-1-1-1-1--|
 D|--5-5-5-5-5-5-3-xxxxxxx-2-2-2-2-2-2-2-2-2-2-2--|
 A|--3-3-3-5-5-5-3-xxxxxxx-2-2-2-2-2-2-2-2-2-2-2--|
 E|--------3-3-3-1-xxxxxxx-0-0-0-0-0-0-0-0-0-0-0--|



[verse]

pm[  . . . . .  . . . . .  . . . . .  . . . . .   ]
 e|-----------------------------------------------|
 B|-----------------------------------------------|
 G|-----------------------------------------------|
 D|-----------------------------------------------|
 A|--7-7-5-5----7-7-5-5----7-7-5-5----7-7-5-5-----|
 E|--5-5-3-3-0--5-5-3-3-0--5-5-3-3-0--5-5-3-3-0---|



[chorus]
 
 e|-----------------------------------------------|
 B|-----------------------------------------------|
 G|-----------------------------------------------|
 D|--7-7--5555--7-7--5555--7-7--5555--7--xxxxxxx--| 
 A|--7-7--5555--7-7--5555--7-7--5555--7--xxxxxxx--|
 E|--5-5--3333--5-5--3333--5-5--3333--5--xxxxxxx--|



[verse two]

 e|-----------------------------------------------|
 B|-----------------------------------------------|
 G|-----------------------------------------------|
 D|-----------------------------------------------|
 A|--7-7-5-5----7-7-5-5----7-7-5-5----7-7-5-5-----|
 E|--5-5-3-3-0--5-5-3-3-0--5-5-3-3-0--5-5-3-3-0---|
 


[chorus two]

 e|-----------------------------------------------|
 B|-----------------------------------------------|
 G|-----------------------------------------------|
 D|--9-9--7777--9-9--7777--9-9--7777--9--xxxxxxx--| 
 A|--9-9--7777--9-9--7777--9-9--7777--9--xxxxxxx--|
 E|--7-7--5555--7-7--5555--7-7--5555--7--xxxxxxx--|




Order
 - intro      [x2]
 - verse      [x5]
 - chorus     [x2]
 - verse two  [x5]
 - chorus     [x2]
 - chorus two [x2]

 - intro      [x2]
 - verse two  [x2]
 - chorus two [x2]


Enjoy :-)
Добавлено: 17.06.2013
Другие материалы по этой песне:
  • Аккорды и текст

Страница создана 17.06.2013
http://primanota.ru/barb-wire-dolls/punk-the-fussies-fuck-the-pussycat-dolls-chords.htm
Привет, Гость.
Предлагаем пройти революционный курс по гитаре.
Подарок от PrimaNota.Ru, забирай!