PrimaNota.ru - самый крупный в мире бесплатный архив песенных текстов, аккордов, табулатур и нот


Barathrum - Sinister Autumn - таба, видео

Регистрация Запомнить меня
Войти через:  Facebook Google Twitter Vk Yandex Mail.ru

Barathrum - Sinister Autumn - таба, видео

Печатать
Просмотров: 144
Standard E-Tuning

  Riff 1
     PM PM PM PM PM PM PM PM PM PM PM PM PM PM PM PM                         
   S  S  S  S  S  S  S  S  S  S  S  S  S  S  S  S     Q    Q    Q    Q     
|--------------------------------------------------|----------------------|
|--------------------------------------------------|----------------------|
|--------------------------------------------------|----------------------|
|--------------------------------------------------|--2----3----2----3----|
|--2--2--2--2--2--2--2--2--------------------------|--2----3----2----3----|
|--------------------------1--1--1--1--1--1--1--1--|--0----1----0----1----|

  Riff 2
   H        H           Q    Q    H           H        H         
|--------------------|---------------------|--------------------|
|--------------------|---------------------|--------------------|
|--------------------|---------------------|--------------------|
|--2--------3--------|--5----3----2--------|--2--------3--------|
|--2--------3--------|--5----3----2--------|--2--------3--------|
|--0--------1--------|--3----1----0--------|--0--------1--------|

   Q    Q    H                  
|---------------------|
|---------------------|
|---------------------|
|--5----3----7--------|
|--5----3----7--------|
|--3----1----5--------|

  Riff 3
   H        H           Q    Q    H         
|--------------------|---------------------|
|--------------------|---------------------|
|--------------------|---------------------|
|--2--------5--------|--8----7----8--------|
|--2--------5--------|--8----7----8--------|
|--0--------3--------|--6----5----6--------|

   H        H           Q    Q    H             
|--------------------|---------------------|
|--------------------|---------------------|
|--------------------|---------------------|
|--2--------5--------|--8----7----3--------|
|--2--------5--------|--8----7----3--------|
|--0--------3--------|--6----5----1--------|

  Riff 4 (Keep playing till fade out)

     Riff 4                                                        
   H        Q    Q       W                   Q.     Q.     Q     
|---------------------|-------------------|---------------------|
|---------------------|-------------------|---------------------|
|---------------------|-------------------|---------------------|
|--2--------9----5----|--4----------------|--5------6------3----|
|--2--------7----3----|--2----------------|--5------6------3----|
|--0--------7----3----|--2----------------|--3------4------1----|
                                          
   W                                                                   
|-----------------------------|
|-----------------------------|
|-----------------------------|
|--2--------------------------|
|--2--------------------------|
|--0--------------------------|
Добавлено: 23.02.2012
Вам также может быть интересно:
Другие материалы по этой песне:
  • Аккорды и текст

Страница создана 23.02.2012
http://primanota.ru/barathrum/sinister-autumn-chords.htm
Привет, Гость.
Предлагаем пройти революционный курс по гитаре.
Подарок от PrimaNota.Ru, забирай!