PrimaNota.ru - самый крупный в мире бесплатный архив песенных текстов, аккордов, табулатур и нот


Barathrum - Dark Sorceress 2 (Winter Siege) - текст песни, бас-таба, видео

Регистрация Запомнить меня
Войти через:  Facebook Google Twitter Vk Yandex Mail.ru

Barathrum - Dark Sorceress 2 (Winter Siege) - текст песни, бас-таба, видео

Печатать
Просмотров: 95
Уроки эстрадного вокала в Санкт-Петербурге
Tabbed by: 6METAL6BASSIST6
E-mail: petergriffinav@gmail.com

Tuning: EADG

0:08

G|----------------------------------------------------------------|.
D|----------------2---3---2---0-------2---0-----------------------|.
A|------------------------------------------------2---3---2-------|.
E|0---0---0---0---------------------------------------------------|.
                                                                   . x8
G|----------------------------------------------------------------|.
D|----------------2---3---2---3-------5---3-------5---7---5-------|.
A|----------------------------------------------------------------|.
E|0---0---0---0---------------------------------------------------|.

0:55

G|----------------------------------------------------------------|.
D|----------------2-------0---------------------------------------|.
A|--------------------------------3-------3---3---3---2---2-------|.
E|0-------0---0---------------------------------------------------|.
                                                                   . x4
G|----------------------------------------------------------------|.
D|----------------2-------0---------------------------3---3-------|.
A|--------------------------------3-------3---3---3---------------|.
E|0-------0---0---------------------------------------------------|.

Repeat from the beginning.

2:29

G|----------------------------------------------------------------|
D|2---3---2---0---2---0-----------2---3---2---0---2---0-----------|
A|------------------------3---2---------------------------3---2---|
E|----------------------------------------------------------------|

G|----------------------------------------------------------------|
D|2---3---2---0---2---0-------------------------------------------|
A|------------------------3---2-----------------------------------|
E|--------------------------------0-------------------------------|

2:35

G|----------------------------------------------------------------|.
D|----------------------------------------------------------------|.
A|----------------------------------------------------------------|.
E|0---0---0---0---0---0---0---0---0---0---0---0---0---0---0---0---|.
                                                                   .
G|----------------------------------------------------------------|.
D|----------------------------------------------------------------|.
A|----------------------------------------------------------------|.
E|1---1---1---1---1---1---1---1---1---1---1---1---1---1---1---1---|.
                                                                   . until fadeout.
G|----------------------------------------------------------------|.
D|----------------------------------------------------------------|.
A|2---2---2---2---2---2---2---2---2---2---2---2---2---2---2---2---|.
E|----------------------------------------------------------------|.
                                                                   .
G|----------------------------------------------------------------|.
D|----------------------------------------------------------------|.
A|1---1---1---1---1---1---1---1---1---1---1---1---1---1---1---1---|.
E|----------------------------------------------------------------|.
Добавлено: 08.06.2016
Другие материалы по этой песне:
  • Аккорды и текст

Страница создана 15.03.2012
http://primanota.ru/barathrum/dark-sorceress-2-winter-siege-chords.htm
Привет, Гость.
Предлагаем пройти революционный курс по гитаре.
Подарок от PrimaNota.Ru, забирай!