PrimaNota.ru - самый крупный в мире бесплатный архив песенных текстов, аккордов, табулатур и нот


Bap - Waschsalon - бас-таба, видео

Регистрация Запомнить меня
Войти через:  Facebook Google Twitter Vk Yandex Mail.ru

Bap - Waschsalon - бас-таба, видео

Печатать
Просмотров: 36
Уроки эстрадного вокала в Санкт-Петербурге
Waschsalon
BAP
Bass tabbed by 19dexter86
Text und Musik: Wolfgang Nideggen
Arrangement: E. Waffenschmidt, 3.12.2001, #2
Tonart: G, Tempo Rock än Roll 168/min

         (1)
|--------|--------|--------|--------|--------|--------|--------|--------|--------|
|--------|5-2-0-2-|--------|5-2-0-2-|5-3-2-0-|--------|--------|5-2-0-25|552-0-2-|
|--------|--------|3-0---0-|--------|--------|3-0---0-|3-0-----|--------|--------|
|--------|--------|----3---|--------|--------|----3---|----3-0-|--------|--------|

                                    (2)
|--------|--------|--------|--------|:--------|--------|--------|--------:|
|--------|--------|5-2-0-25|5-------|:--------|--------|--------|--------:|
|5-2-0-2-|3-------|--------|-5555555|:2---6---|2---6---|0-0.-0.-|0.-0.-0.:|
|--------|--3-0-3-|--------|--------|:--2---2-|--2---2-|--------|--------:|


|--------|--------|--------|--------|
|--------|--------|--------|--------|
|3-------|3-------|5-2-0-25|55555555|
|--3-0-3-|--3-0-3-|--------|--------|

(3)
|--------|--------|--------|--------|--------|--------|--------|--------|
|5-2-0-2-|5-2-0-2-|5-2-0-2-|5-3-2-0-|--------|--------|5-2-0-25|552-0-2-|
|--------|--------|--------|--------|3-0---0-|3-0-----|--------|--------|
|--------|--------|--------|--------|----3---|----3-0-|--------|--------|

|--------|--------|--------|--------|
|--------|--------|5-2-0-25|50000000|
|5-2-0-2-|3-------|--------|--------|
|--------|--3-0-3-|--------|--------|

(1)
Refr.: Ich jonn su unwahrscheinlich jähn met dir enn der Wasch- salon.
Ich jonn su unwahrscheinlich jähn met dir enn der Wasch- salon,
weil du häss Ahnung vun dä Technik, vunn der ich nix ver-stonn.
(2)
1) Ich maach ding Auge und ding Leppe un ding Naas und ding Frisur.
Vumm decke Zieh bess zo de Fingerspezze fahr ich ab op ding Figur.
doch wat mich intensiv zum Staune bring, ess wirklich ein Saach nur:
(1) 
2) Su wie du optritts en dämm Laade un direk en leer Maschien entdecks
un die Jebrauchsahnweisung nevvenbei met einem Bleck affchecks.
Dazo kann ich nur saare: "Frau, dat hätt Format, ich benn perplex!"
(2) 
3) Dat Kleinjeld, wat mer hedrinn bruch, dat hässte selbstverständlich längs parat.
Ich dunn die Wäsch drinn, do die Knete, dann routiert dä Lavamat.
Dat dat nit weltweit övver Satelit jesendet weet, ess wirklich schaad.

(1)
Refr.: Ich jonn su unwahrscheinlich jähn met dir enn der Wasch- salon.
Ich jonn su unwahrscheinlich jähn met dir enn der Wasch- salon,
weil du häss Ahnung vun dä Technik, vunn der ich nix ver-stonn.
(3)
Wisch Wasch, Wisch Wasch, Wisch Wasch, Wisch Wasch,
Wisch Wasch, Wisch Wasch, Wisch Wasch, Wisch Wasch,
weil du häss Ahnung vun dä Technik, vunn der ich nix verstonn.
(1)
4) Die Schleuder törnste ahn, bess dat dat Ding de Welt niemieh versteht,
ich flippen uss, wenn ich mer ahnluhr, wie et em Trockner wiggerjeht.
Die Mangel pack et nitmieh un behauptet: Bügelfrei
dat kriej ich wirklich nit jerejelt, Frau dat jrenzt ahn Zauberei.
Ich jonn su unwahrscheinlich jähn met dir enn der Waschsalon,
weil du häss Ahnung vun dä Technik, vunn der ich nix verstonn.
(3)
Wisch Wasch, Wisch Wasch, Wisch Wasch, Wisch Wasch,
Wisch Wasch, Wisch Wasch, Wisch Wasch, Wisch Wasch,
weil du häss Ahnung vun dä Technik, vunn der ich nix verstonn.
Nein Jarnix!
Добавлено: 18.06.2016
Другие материалы по этой песне:

Страница создана 18.06.2016
http://primanota.ru/bap/waschsalon-chords.htm
Привет, Гость.
Предлагаем пройти революционный курс по гитаре.
Подарок от PrimaNota.Ru, забирай!