PrimaNota.ru - самый крупный в мире бесплатный архив песенных текстов, аккордов, табулатур и нот


Bap - Schloof Jung Schloof Joot - текст песни, таба, видео

Регистрация Запомнить меня
Войти через:  Facebook Google Twitter Vk Yandex Mail.ru

Bap - Schloof Jung Schloof Joot - текст песни, таба, видео

Печатать
Просмотров: 162
Vereinfachte Version

e :2-----2-----2---:0-----0-----2---:5-----5-----5---:5-----2-----2---:3-----3-----3---:
B :--3-----3-----3-:--3-----3-----3-:--3-----3-----3-:--3-----3-----3-:--3-----3-----3-:
G :----2-----2-----:----2-----2-----:----2-----2-----:----2-----2-----:----2-----2-----:
D :0---------------:0---------------:0---------------:0---------------:0---------------:
A :----------------:----------------:----------------:----------------:----------------:
E :----------------:----------------:----------------:----------------:----------------:

e :3-----3-----3---:3-----3-----3---:3-----2-----0---:0-----0---------:----------------:
B :--3-----3-----3-:--3-----3-----3-:--3-----3-----3-:--2-----2---2---:3-----3-----3---:
G :----2-----2-----:----2-----2-----:----2-----2-----:----2-----2---2-:--2-----2-----2-:
D :0---------------:0---------------:0---------------:----------------:----2-----2-----:
A :----------------:----------------:----------------:0---------------:0---------------:
E :----------------:----------------:----------------:----------------:----------------:

e :0-----0-----0---:5-----5-----0---:2-----2-----2---:0-----0-----2---:5-----5-----5---:
B :--2-----2-----2-:--2-----2-----2-:--3-----3-----3-:--3-----3-----3-:--3-----3-----3-:
G :----2-----2-----:----2-----2-----:----2-----2-----:----2-----2-----:----2-----2-----:
D :----------------:----------------:0---------------:0---------------:0---------------:
A :0---------------:0---------------:----------------:----------------:----------------:
E :----------------:----------------:----------------:----------------:----------------:

e :5-----2-----2---:3-----3-----3---:3-----3-----3---:3-----3-----3---:3-----2-----0---:
B :--3-----3-----3-:--3-----3-----3-:--3-----3-----3-:--3-----3-----3-:--3-----3-----3-:
G :----2-----2-----:----2-----2-----:----2-----2-----:----2-----2-----:----2-----2-----:
D :0---------------:0---------------:0---------------:0---------------:0---------------:
A :----------------:----------------:----------------:----------------:----------------:
E :----------------:----------------:----------------:----------------:----------------:

e :----------------:----------------:0-----0-----0---:5-----5-----0---:3-----3-----3---:
B :2-----2-----2---:3-----3-----3---:--2-----2-----2-:--2-----2-------:--3-----3-----3-:
G :--2-----2-----2-:--2-----2-----2-:----2-----2-----:----2-----2-----:----4-----4-----:
D :----2-----2-----:----2-----2-----:----------------:----------------:----------------:
A :0---------------:0---------------:0---------------:0---------------:----------------:
E :----------------:----------------:----------------:----------------:3---------------:

e :3-----5-----7---:----------------:------5---------:3-----3-----3---:3-----5-----7---:
B :--3-----3-------:5-----5-----5---:5-----------5---:--3-----3-----3-:--3-----3-------:
G :----4-----4-----:--6-----6-----6-:--6-----6-------:----4-----4-----:----4-----4-----:
D :----------------:----7-----7-----:----7-----7-----:----------------:----------------:
A :----------------:----------------:----------------:----------------:----------------:
E :3---------------:5---------------:5---------------:3---------------:3---------------:

e :0-----0-----0---:0-----3-----7---:----------------:----------------:0-----0-----0---:
B :--0-----0-----0-:--0-----0-------:2-----2-----2---:3-----3-----3---:--2-----2-----2-:
G :----0-----0-----:----0-----0-----:--2-----2-----2-:--2-----2-----2-:----2-----2-----:
D :----------------:----------------:----2-----2-----:----2-----2-----:----------------:
A :----------------:----------------:0---------------:0---------------:0---------------:
E :0---------------:0---------------:----------------:----------------:----------------:

e :0---------------:
B :-(2)-(3)---(0)--:
G :---(2)-(2)------:
D :---------(2)----:
A :0---------------:
E :----------------:

Schloof Jung, schloof joot.
Do, wenn de wills sing ich widder fuer dich noch die janze Naach.
Jed' Wort, jed' Stroof,
die ich kenn, janz ejal, och wenn't usssueht, als ob do mich leis usslaachs.
Do, dae noch nix versteht.
Woher och? - Kriss noch froeh jenooch russ, wo 't drumm jeht,
Wat Freud ess, wat Leid.

Schloof Jung - kein Angs,
draeum vun jet Schoenem, ich pass op dich op, dir deit keiner jet.
Fleesch, wenn de kanns,
huh oevver Berje un Meere, ich helf dir, ich flieje met.
Oh du winzije Schatz.
Summ all jooder Jefoehle, die ich jemohls hatt.
Jung, do setz mich Schachmatt.

Schaad - su 'e Weejeleed's leis.
't ess nit drinn, dat mer ussklink un et einfach deit:
Sing Gloeck laut russschreit.
Добавлено: 23.04.2012
Другие материалы по этой песне:
  • Аккорды и текст

Страница создана 17.03.2012
http://primanota.ru/bap/schloof-jung-schloof-joot-chords.htm
Привет, Гость.
Предлагаем пройти революционный курс по гитаре.
Подарок от PrimaNota.Ru, забирай!