PrimaNota.ru - самый крупный в мире бесплатный архив песенных текстов, аккордов, табулатур и нот


Bangtan Boys - Dope - таба, видео

Регистрация Запомнить меня
Войти через:  Facebook Google Twitter Vk Yandex Mail.ru

Bangtan Boys - Dope - таба, видео

Печатать
Просмотров: 325
-------------------------------------------------------------------------------
                             DOPE - Bangtan Boys (BTS)
-------------------------------------------------------------------------------
Tabbed by: Ronnie Mathews
E-mail: tyr0nosaurus.cove@gmail.com

Tuning: Standard

e|-------------1---1---------------------------------------------------------|
B|-----------2---2------------------2----------------------------------------|
G|3-3-3~-3-3---------3-3-3~-3-3p1--------------------------------------------|
D|--------------------------------3------------------------------------------|
A|---------------------------------------------------------------------------|
E|---------------------------------------------------------------------------|

e|-------------1---1/6-9-6-9-6---6-------------------------------------------|
B|-----------2---2-------------6---6-5-4-2~----------------------------------|
G|3-3-3~-3-3--------------------------------3--------------------------------|
D|---------------------------------------------------------------------------|
A|---------------------------------------------------------------------------|
E|---------------------------------------------------------------------------|

It could also be played up on the 15th fret, to match the pitch of the song.

e|-------------------13----13------------------------------------------------|
B|----------------14----14--------------------------14-----------------------|
G|15-15-15~-15-15-------------15-15-15~-15-15p13-----------------------------|
D|-----------------------------------------------15--------------------------|
A|---------------------------------------------------------------------------|
E|---------------------------------------------------------------------------|

e|-------------------13----13/18-21-18-21-18----18---------------------------|
B|----------------14----14-------------------18----18-17-16-14---------------|
G|15-15-15~-15-15----------------------------------------------15------------|
D|---------------------------------------------------------------------------|
A|---------------------------------------------------------------------------|
E|---------------------------------------------------------------------------|

Check out my blog on tumblr for more chords: 
http://tyr0nosauruscove.tumblr.com/

************************************

| /   slide up
| \   slide down
| h   hammer-on
| p   pull-off
| ~   vibrato
| +   harmonic
| x   Mute note
| b   Bend
| pb  Pre-bend
| br  Bend release
| pbr Pre-bend release
| brb Bend release bend

************************************
Добавлено: 23.11.2015
Другие материалы по этой песне:
  • Аккорды и текст

Страница создана 23.11.2015
http://primanota.ru/bangtan-boys/dope-chords.htm
Привет, Гость.
Предлагаем пройти революционный курс по гитаре.
Подарок от PrimaNota.Ru, забирай!