PrimaNota.ru - самый крупный в мире бесплатный архив песенных текстов, аккордов, табулатур и нот


Bangtan Boys - Beautiful - таба, видео

Регистрация Запомнить меня
Войти через:  Facebook Google Twitter Vk Yandex Mail.ru

Bangtan Boys - Beautiful - таба, видео

Печатать
Просмотров: 63
Новый альбом группы 'Черный Кузнец' по культовому сериалу 'Сверхъестественное'!
E|------------------------------|
B|------------------------------|
G|------------------------------| (2x)
D|-7--9-9--7-7h9-9/11-11/9-9----|
A|------------------------------|
E|------------------------------|

E|------------------------------|
B|------------------------------|
G|------------------------------| (1x)
D|---9-9-----9/11-11/9-9--------|
A|-5-----5-5--------------------|
E|------------------------------|

E|------------------------------|
B|------------------------------|
G|------------------------------| (1x)
D|---9-9-----9/11-11/9-9--------|
A|-7-----7-7--------------------|
E|------------------------------|

E|------------------------------|
B|------------------------------|
G|------------------------------| (1x)
D|---11-11-9---9-9-7------------|
A|-9---------5------------------|
E|------------------------------|
Добавлено: 20.04.2018
Вам также может быть интересно:
Другие материалы по этой песне:
  • Аккорды и текст

Страница создана 20.04.2018
http://primanota.ru/bangtan-boys/beautiful-chords.htm
Привет, Гость.
Предлагаем пройти революционный курс по гитаре.
Подарок от PrimaNota.Ru, забирай!