PrimaNota.ru - самый крупный в мире бесплатный архив песенных текстов, аккордов, табулатур и нот


Bang Camaro - Push Push Lady Lightning - таба, бас-таба, видео

Регистрация Запомнить меня
Войти через:  Facebook Google Twitter Vk Yandex Mail.ru

Bang Camaro - Push Push Lady Lightning - таба, бас-таба, видео

Печатать
Просмотров: 397
This is the 100% correct guitar solo in the song. This fixes the solo found in "Push 
Lady Lightning Tab (ver 2)". Please use that for the rest of the song.

NOTE: The '7*b9's in Solo I are pinch harmonics that sound like '23b24's. It is the way 
band plays it live and in the music video.

Tuning: Standard (E-A-D-G-B-e)

*Solo I:

e|----------15==-------------------------------------------------|
B|15 b 17===----15b17r-------------------------------------------|
G|----------------------7*b9-7*b9-7*b9-7*b9-7*b9-7*b9-7* b 9~~~--|
D|---------------------------------------------------------------|
A|---------------------------------------------------------------|
E|---------------------------------------------------------------|

*Solo II (VERY fast):

e|--------------------------------------------------------------------|
B|--------------------------------------------------------------------|
G|--------------------------------------------------------------------|
D|--------8h10h12---------8h10h12----------10h12h14----------10h12h14-|
A|8h10h12---------8h10h12---------10h12h14----------10h12h14----------|
E|--------------------------------------------------------------------|

e|------------------------------------------------------------|
B|------------------------------------------------------------|
G|-------7h9h10--------7h9h10---------9h10h12---------9h10h12-|
D|7h9h10--------7h9h10--------9h10h12---------9h10h12---------|
A|------------------------------------------------------------|
E|------------------------------------------------------------|

e|---------10h12h13----------10h12h13----------12h13h15----------12h13h15-|
B|10h12h13----------10h12h13----------12h13h15----------12h13h15----------|
G|------------------------------------------------------------------------|
D|------------------------------------------------------------------------|
A|------------------------------------------------------------------------|
E|------------------------------------------------------------------------|

e|13-[17]20-13----13-[17]20-13----15-[19]22-15----15-19-15----19 b 20~~~\-|
B|-------------13--------------15--------------16----------16-------------|
G|------------------------------------------------------------------------|
D|------------------------------------------------------------------------|
A|------------------------------------------------------------------------|
E|------------------------------------------------------------------------|

=========================================================================
| LEGEND
| /   slide up
| \   slide down
| h   hammer-on
| p   pull-off
| b   bend
| ~   vibrato
| *   pinch harmonic
| x   Mute note
| =   Let Ring
| PM  Palm Mute
| [#] Grace note
===========================================================================
Добавлено: 01.06.2012
Другие материалы по этой песне:

Страница создана 21.02.2012
http://primanota.ru/bang-camaro/push-push-lady-lightning-chords.htm
Привет, Гость.
Предлагаем пройти революционный курс по гитаре.
Подарок от PrimaNota.Ru, забирай!