PrimaNota.ru - самый крупный в мире бесплатный архив песенных текстов, аккордов, табулатур и нот


Bang Camaro - Bang Camaro - таба, видео

Регистрация Запомнить меня
Войти через:  Facebook Google Twitter Vk Yandex Mail.ru

Bang Camaro - Bang Camaro - таба, видео

Печатать
Просмотров: 232
Новый альбом группы 'Черный Кузнец' по культовому сериалу 'Сверхъестественное'!
This is my first tab so dont complain if you think it sucks
maybe if you are lucky some leet guitar taber will make a better one
no solo on this eaither except interlude part, just background guitar

Intro                                                                2 times
----------------------------------------------------------------------------|
----------------------------------------------------------------------------|
----------------------------------------------------------------------------|
-----9-7-9------------------------------------------------------------------|
-----7-5-7--7/5--5-5-5-5-5-5-5-55---7-5-7---7-7-7-3-2-3--5-3-5--------------|
-12/-------------3-3-3-3-3-3-3-33---5-3-5---5-5-5---------------------------|
            ***    * * * * * * **           * * *

End of Intro after 2nd time
----------|
----------|
----------|
----------|
-9--------|
-7--------| Let Ring

Main Riff                                                            2 times
----------------------------------------------------------------------------|
----------------------------------------------------------------------------|
----------------------------------------------------------------------------|
-9---9-5------5-------------------7-8-Imidiatly reapeat---------------------|
-7---7-3------3-5---------5-6-7---5-6---------------------------------------|
----------------3---------3-4-5---------------------------------------------|


Main Riff with Mutes         1st time end    2nd time end            2 times
---------------------------(---------------)(-----------)-------------------|
---------------------------(---------------)(-----------)-------------------|
---------------------------(---------------)(-----------)-------------------|
--9....--9-5....--5--------(-----------7-8-)(-5-6-7....-)-------------------|
--7....--7-3....--3-5....--(-5-6-7....-5-6-)(-3-4-5....-)-------------------|
--------------------3....--(-3-4-5....-----)(-----------)-------------------|
   ****     ****     ****         ****             ****


Short Riff Thingy           2 times
---------------------------|
---------------------------|
---------------------------|
---------5-----------------|
-7-------3------5----------|
-5--------------3----------|

Main Riff Two                                                        2 times
----------------------------------------------------------------------------|
----------------------------------------------------------------------------|
----------------------------------------------------------------------------|
-9--12-11-5--------5-5-----------7------------------------------------------|
-7--10--9-3--------3-3-5---------5------------------------------------------|
-----------------------3----------------------------------------------------|
                   *    let ring  let ring

Play the "Main Riff" to "Main Riff Two" one more time

Interlude   (I tried my best)
----------------------------------------------------------------------------|
-8-----7h8h10--8h10h12-/-7-----12h13h15-------------------------------------|
----------------------------------------------------------------------------|
----------------------------------------------------------------------------|
----------------------------------------------------------------------------|
----------------------------------------------------------------------------|


-----15----14---12-10-8-7h8-5-7-3h5-2-3-------------------------------------|
----------------------------------------3h5p3-0-1-0-------------------------|
--12----11----9-------------------------------------0-2-0-------------------|
----------------------------------------------------------4-----------------|
----------------------------------------------------------------------------|
----------------------------------------------------------------------------|

Back to backgroud guitar

During Solo       Do not play this 2nd time                          2 times
----------------(------------)----------------------------------------------|
----------------(------------)----------------------------------------------|
----------------(------------)----------------------------------------------|
--------5---5-5-(--------7--7)----------------------------------------------|
-9--9-9-3---3-3-(7---7-7-5--5)----------------------------------------------|
-7--7-7---------(5---5-5-----)----------------------------------------------|

Solo Continued                                          Play this part twice
----------------------------------------------------------------------------|
----------------------------------------------------------------------------|
----------------------------------------------------------------------------|
-9--9-9-------5--5-5-5------------------7--7-7------------------------------|
-7--7-7-------3--3-3-3------5--5-5------5--5-5------------------------------|
----------------------------3--3-3------------------------------------------|

Solo Continued      Do not play this part 2nd time      Play this part twice
-------------------(-------------------------------)------------------------|
-------------------(-------------------------------)------------------------|
-------------------(-------------------------------)------------------------|
-4--4-4-----5--5-5-(---------------7-7-7-7-7-7-7-7-)------------------------|
-2--2-2-----3--3-3-(-7--7-7--7-----5-5-5-5-5-5-5-5-)------------------------|
-------------------(-5--5-5--5---------------------)------------------------|

After this it seems like muted and unmuted powerchords sliding up the neck. i could tell 
it went so just be creative during this part.

Finally play "Main Riff Two" 4 times until the end

well i tried my best
you probably need to listen to the song to get the timing
i think its a pretty cool song
pretty simple too
enjoy

Key
h - hammer on
p - pull off
* - palm mute
/ - slide
Добавлено: 03.05.2012
Другие материалы по этой песне:
  • Аккорды и текст

Страница создана 03.05.2012
http://primanota.ru/bang-camaro/bang-camaro-chords.htm
Привет, Гость.
Предлагаем пройти революционный курс по гитаре.
Подарок от PrimaNota.Ru, забирай!