PrimaNota.ru - самый крупный в мире бесплатный архив песенных текстов, аккордов, табулатур и нот


Bane - Snakes Among Us - текст песни, таба, видео

Регистрация Запомнить меня
Войти через:  Facebook Google Twitter Vk Yandex Mail.ru

Bane - Snakes Among Us - текст песни, таба, видео

Печатать
Просмотров: 135
-------------------------------------------------------------------------------
			  SNAKES AMONG US - Bane
-------------------------------------------------------------------------------

By: Mike Crucial MSCRI850@aol.com

   Intro
E|-------------------------------|-----12----11------12----11----------------|
B|-------------------------------|--10----10------10----10-----10------------|
G|--7-9--9--9--x-x-9---9--9-9-9--|-------------------------------------------|
D|----------9--x-x-9---9--9-9-9--|-------------------------------------------|
A|--5-7--7--7--x-x-7---7--7-7-7--|-------------------------------------(x2)--|
E|-------------------------------|-------------------------------------------|

E|---------------------------------------------------------------------------|
B|---------------------------------------------------------------------------|
G|-----9-9--8--8-8-8--8------9-8-7--7-7-7------9-9--8--8-8-8--8------9-8-7---|
D|--8--9-9--8--8-8-8--8---8--9-8-7--7-7-7---8--9-9--8--8-8-8--8---8--9-8-7---|
A|--8--7-7--6--6-6-6--6---8--7-6-5--5-5-5---8--7-7--6--6-6-6--6---8--7-6-5---|
E|--6---------------------6-----------------6---------------------6----------|

   Verse
E|---------------------------------------------------------------------------|
B|---------------------------------------------------------------------------|
G|-----------6-6-6--5-5-5------------9-8-7-8------------6-6-6--5-5-5---10-10-|
D|--2-2-2-2--6-6-6--5-5-5---2-2-2-2------------2-2-2-2--6-6-6--5-5-5---------|
A|--2-2-2-2--4-4-4--3-3-3---2-2-2-2--7-6-5-6---2-2-2-2--4-4-4--3-3-3---8--8--|
E|--0-0-0-0-----------------0-0-0-0------------0-0-0-0-----------------------|

		       Chorus	
E|-------------------|-------------------------------------------------------|
B|-------------------|------------------------8-8-8-8-8--7-7-7-7-7-----------|
G|--10-10--7-8--6-7--|--9-9-9-9-9--8-8-8-8-8---------------------------------|
D|-------------------|------------------------5-5-5-5-5--4-4-4-4-4-----------|
A|--8--8---5-6--4-5--|--7-7-7-7-7--6-6-6-6-6---------------------------------|
E|-------------------|-------------------------------------------------------|

   Verse						  Bridge
E|------------------------------------------------------|--------------------|
B|------------------------------------------------(x2)--|--------------------|
G|-----------6-6-6--5-5-5------------9-8-8-7-8-9--------|--9-8--7-8---9-8----|
D|--2-2-2-2--6-6-6--5-5-5---2-2-2-2--9-8-8-7-8-9--------|--9-8--7-8---9-8----|
A|--2-2-2-2--4-4-4--3-3-3---2-2-2-2--7-6-6-5-6-7--------|--7-6--5-6---7-6----|
E|--0-0-0-0-----------------0-0-0-0---------------------|--------------------|

E|-------------------------------------|-------------------------------------|
B|-------------------------------------|------------------------8-8-8-8-8----|
G|------------9-8--7-8---9-8-----------|--9-9-9-9-9--8-8-8-8-8---------------|
D|--2-2-2-2---9-8--7-8---9-8--2-2-2-2--|------------------------5-5-5-5-5----|
A|--2-2-2-2---7-6--5-6---7-6--2-2-2-2--|--7-7-7-7-7--6-6-6-6-6---------------|
E|--0-0-0-0-------------------0-0-0-0--|-------------------------------------|

E|---------------------------------------------------------------------------|
B|--7-7-7-7-7----------------------------------------------------------------|
G|--------------9-9-9-9-9--8-8-8-8-8-------------8-8-8-8-8-------------------|
D|--4-4-4-4-4-------------------------2-2-2-2-2------------------------------|
A|--------------7-7-7-7-7--6-6-6-6-6--2-2-2-2-2--6-6-6-6-6-------------------|
E|------------------------------------0-0-0-0-0------------------------------|

   Bridge
E|----------------------------------------------|----------------------------|
B|--12-12-12--11-11-11--12-12-12--15-15--13-13--|--12-13-15-13-12------------|
G|----------------------------------------------|----------------------------|
D|----------------------------------------------|----------------------------|
A|----------------------------------------------|----------------------(x4)--|
E|----------------------------------------------|----------------------------|

   Break						Outro
E|----------------------------------------------------|----------------------|
B|----------------------------------------------(x2)--|----------------------|
G|--9-9-9-9-9--9-9-9-9---9-9-9-9-9--9-9-9-9--7--------|----------------------|
D|--9-9-9-9-9--9-9-9-9---9-9-9-9-9--9-9-9-9-----------|--2-2-2-2-2-2-2-------|
A|--7-7-7-7-7--7-7-7-7---7-7-7-7-7--7-7-7-7--5--------|--2-2-2-2-2-2-2-------|
E|----------------------------------------------------|--0-0-0-0-0-0-0-------|

E|---------------------------------------------------------------------------|
B|---------------------------------------------------------------------------|
G|-------------7-7-7-7-7--9-9-9-9-9--7---9-9-9-9-9--11-11-11-11-11--7-7-7-7--|
D|--4-4-4-4-4--7-7-7-7-7--9-9-9-9-9--7---9-9-9-9-9--11-11-11-11-11--7-7-7-7--|
A|--4-4-4-4-4--5-5-5-5-5--7-7-7-7-7--5---7-7-7-7-7--9--9--9--9--9---5-5-5-5--|
E|--2-2-2-2-2----------------------------------------------------------------|
                    
E|---------------------------------------------------------------------------|
B|---------------------------------------------------------------------------|
G|--9-9-9-9-9--7-------------------------------------------------------------|
D|--9-9-9-9-9--7-------------------------------------------------------------|
A|--7-7-7-7-7--5-------------------------------------------------------------|
E|---------------------------------------------------------------------------|

    E|-----------------------------------------(x )--|-------------------------------------|
    B|-----------------------------------------------|-----------7-7-7--8-8-8--------------|
    G|--9-9-9-9--11-11-11-11--7-7-7-7--9-9-9-9--7----|--9-9-9-9----------------9-9-9-9--7--|
 1. D|-----------------------------------------------|-----------4-4-4--5-5-5--------------|
    A|--7-7-7-7--9--9--9--9---5-5-5-5--7-7-7-7--5----|--7-7-7-7----------------7-7-7-7--5--|
    E|-----------------------------------------------|-------------------------------------|

    E|-----------------------------------------------------------------|-------------------|
    B|--12-12-12-12-------------------------------12-12-12--13-15-13---|--12-13-15-13-12---|
    G|---------------11-11-11-11-11--12-12-12-12-----------------------|-------------------|
 2. D|-----------------------------------------------------------------|-------------------|
    A|----------------------------------------------------------(x2)---|-------------(x )--|
    E|-----------------------------------------------------------------|-------------------|

E|-------------------------19---------------------19-------------------------||
B|-----------------------------19--19~-------19------------------------------||
G|--9---12----12-11--9-------------------9-------------9---------------------||
D|--9----------------9-------------------9-------------9---------------------||
A|--7----------------7-------------------7-------------7---------------------||
E|---------------------------------------------------------------------------||

===============================================================================
Добавлено: 23.02.2012
Другие материалы по этой песне:
  • Аккорды и текст

Страница создана 23.02.2012
http://primanota.ru/bane/snakes-among-us-chords.htm
Привет, Гость.
Предлагаем пройти революционный курс по гитаре.
Подарок от PrimaNota.Ru, забирай!