PrimaNota.ru - самый крупный в мире бесплатный архив песенных текстов, аккордов, табулатур и нот


Bandits Of The Acoustic Revolution - That Was a Crazy Game of Poker - текст песни, таба, видео

Регистрация Запомнить меня
Войти через:  Facebook Google Twitter Vk Yandex Mail.ru

Bandits Of The Acoustic Revolution - That Was a Crazy Game of Poker - текст песни, таба, видео

Печатать
Просмотров: 160
From: Matt Nikeman246@aol.com
Of A Revolution - Crazy Game of Poker
Intro:
C          G          Am       F
e--10-10-12-8-X-8-5-5--------------------------------
B--8--8-----8-X-8-5-5--------------------------------
G----------------------7b-5-----5-----5-7-7b-7-5h7p5-
D---------------------------5h7---5h7----------------
A----------------------------------------------------
E----------------------------------------------------
C            G          Am      F
e-------------------------------------------------
B--------------------------5-6-8-8/10-8-6-5----------
G------------5-7b-5-5h7p5-----------------------------
D------5-5h7-----------------------------------------
A--5h7---------------------------------------------
E----------------------------------------------------
C             G                Am F
e----------------------------------------------------
B----------------------5-6-8-8---------------------
G----------------4-5-7------------------------------
D----------3-5-7------------------------------------
A--2-3-5-7-------------------------------------------
E----------------------------------------------------
C       G         Am    F
e--10b-8-8-10-12-8-8-7-8-8/10-8---------------------
A---------------------------------------------------
B---------------------------------------------------
G---------------------------------------------------
D---------------------------------------------------
E---------------------------------------------------
Chords for entire song:
C G Am F
Bridge hammered on with Am.
-Bill Neumann
billneumann@hotmail.com
Добавлено: 29.06.2012
Другие материалы по этой песне:
  • Аккорды и текст

Страница создана 29.06.2012
http://primanota.ru/bandits-of-the-acoustic-revolution/that-was-a-crazy-game-of-poker-chords.htm
Привет, Гость.
Предлагаем пройти революционный курс по гитаре.
Подарок от PrimaNota.Ru, забирай!