PrimaNota.ru - самый крупный в мире бесплатный архив песенных текстов, аккордов, табулатур и нот


Bandits Of The Acoustic Revolution - Hey Girl - текст песни, таба, видео

Регистрация Запомнить меня
Войти через:  Facebook Google Twitter Vk Yandex Mail.ru

Bandits Of The Acoustic Revolution - Hey Girl - текст песни, таба, видео

Печатать
Просмотров: 244
Уроки эстрадного вокала в Санкт-Петербурге
From: Matt Nikeman246@aol.com

O.A.R. (...of a revolution)

Hey Girl

transcribed by Jason Scherrer (jimi_thing@hotmail.com)

Intro/Verse/Chorus

e-------------------
b-------------------
g---1---6---8---6---
d---2---7---9---7---
a---2---7---9---7---
E-------5---7---5---

or

e---7---5---7---5---
b---9---5---7---5---
g---9---6---8---6---
d---9---7---9---7---
a---7---7---9---7---
E---7---5---7---5---

or

e------------------
b-------2---4------
g---1---2---4(4)---
d---2---2---4(4)---
a---2--------(2)---
E------------------
Добавлено: 07.05.2012
Другие материалы по этой песне:
  • Аккорды и текст

Страница создана 07.05.2012
http://primanota.ru/bandits-of-the-acoustic-revolution/hey-girl-chords.htm
Привет, Гость.
Предлагаем пройти революционный курс по гитаре.
Подарок от PrimaNota.Ru, забирай!