PrimaNota.ru - самый крупный в мире бесплатный архив песенных текстов, аккордов, табулатур и нот


The Bandicoots - Mind Your Manors - аккорды и текст, видео

Регистрация Запомнить меня
Войти через:  Facebook Google Twitter Vk Yandex Mail.ru

The Bandicoots - Mind Your Manors - аккорды и текст, видео

Печатать
Просмотров: 68
Mind Your Manors
The Bandicoots
http://www.thebandicootsmusic.com

Mind Your Manors - The Bandicoots

Tabbed By: TheBandicoots
Email: thebandicoots@outlook.com

Tuning: Standard



INTRO RIFF
e|-------------------------------|
B|-------------------------------|
G|-------------------------------|
D|-------------------------------|     x3
A|----------4-------------2------|
E|--7-7-6-7---7-6-4-4-2-4---4-2--| 

e|---------------------------------|
B|---------------------------------|
G|---------------------------------|
D|----------2----------------------|
A|--4-4-3-4---4-3-------------4----|
E|----------------2-2-0-2-4-6---7--|


       B                            G#m
Those daydreaming eyes could likely ship you to the moon
         B                          G#m
Send you packing for the stars on a hot air balloon
    B
For days
           G#m
Stuck in a haze 
         C#m              F#
You ever see a place like this?


JUSTIN'S LEAD
e|------7---9-------4---|
B|------7---7-------4---|
G|----8-----8-----4-----|
D|--9-----------6-------|    x3
A|----------------------|
E|----------------------|

e|------4--6------2----------|
B|----5----5----2------------|
G|--6------6--3--------------|
D|---------------------------|
A|---------------------------|
E|---------------------------|

       B                             G#m
She'll fill up your free time if you sit another song
        B                          G#m
Replace your midnight pining for a bill in her thong 
   B
In case
                  G#m
You need a hiding place
            C#m            F#
Just out of reach from the jar


PRE CHORUS RIFF
e|-------------------------|
B|-------------------------|
G|-------------------------|
D|--6-4--------------------|
A|------7-6-4-4-------4----|
E|--------------2-4-6---7--|

I don't want to stay here
Anymore than you

B                         B7
When she takes you by the hand
                        E
And makes you feel like her sweetheart

Don't fall apart
      Em
She's tricked them before x2



CHORUS
B             C#
You won't be there to see her leaving
    F#              B                      E
And you wouldn't be caught dead waving goodbye
                        Em                       B
'Cause you're busy believing that she'll be back again

F# F# -- F# F# -- F#



SOLO
e|---------------------------|
B|---------------------------|
G|---------------------------|
D|--9--11/13--11--9/6--4-6-8-|     x3
A|---------------------------|
E|---------------------------|

e|------------------------------|
B|------------------------------|
G|--------11-13-11---13-11------|
D|--11-13------------------13---|
A|----------------------------9-|
E|------------------------------|


VERSE 2

B                     G#m
Sorry Miss Mary but I haven't got enough
B                                 G#m
I can run to a machine there's no need to get rough
B
Just yet
              G#m
Oh yeah, just wait
          C#m      F#
Before we get them involved

B                                   G#m
We scraped up some change, not even close to the tab
B                                  G#m
Might of had enough if Maya hadn't taken a stab
     B
That stung
              G#m
The tip of my tongue
     C#m               F#
Only just a second too late


PRE CHORUS 2
I don't want to stay here
Anymore than you


B                     B7
If she takes you back again
                       E
See if they'll take an IOU

Instead of you
    Em
And if not, well then
                          B
You better tighten your laces

CHORUS
B            C#
You won't be there to see her leaving
    F#              B                      E
And you wouldn't be caught dead waving goodbye
                       Em                        B
'Cause you're busy believing that she'll be back again

BRIDGE

F# F# -- F# F# -- F# -- G    x3
F#

JUSTIN'S LEAD
e|--------------15------------14--|
B|--------15-------15----15---14--|
G|-----16----16-------16------15--|
D|--17------------------------16--|    x3
A|--------------------------------|
E|--------------------------------|


e|-----------15-----------14---14--|
B|--------15-----------14------16--|
G|-----16-----------15---------16--|
D|--17-----------16----------------|
A|---------------------------------|
E|---------------------------------|



PRE CHORUS (HEAVY)
B                         B7
When she takes you by the hand
                        E
And makes you feel like her sweetheart

Don't fall apart
      Em
She's tricked them before x2

CHORUS
B            C#
You won't be there to see her leaving
    F#              B                      E
And you wouldn't be caught dead waving goodbye
                      Em                         B
'Cause you're busy believing that she'll be back again




(Intro Riff)




FIN
Добавлено: 05.03.2016
Другие материалы по этой песне:
  • Аккорды и текст

Страница создана 05.03.2016
http://primanota.ru/bandicoots/mind-your-manors-chords.htm
Привет, Гость.
Предлагаем пройти революционный курс по гитаре.
Подарок от PrimaNota.Ru, забирай!