PrimaNota.ru - самый крупный в мире бесплатный архив песенных текстов, аккордов, табулатур и нот


A Banda Mais Bonita Da Cidade - Que Isso Fique Entre Nós - таба, видео

Регистрация Запомнить меня
Войти через:  Facebook Google Twitter Vk Yandex Mail.ru

A Banda Mais Bonita Da Cidade - Que Isso Fique Entre Nós - таба, видео

Печатать
Просмотров: 119
Уроки эстрадного вокала в Санкт-Петербурге
Artist: A Banda Mais Bonita da Cidade
Song: Que Isso Fique Entre Nós
Album: O Mais Feliz Da Vida
Tabbed by: gustavoaraujo999@hotmail.com


== GUITAR ONE (LEAD) ==

0:42
e|-4--------3--------2-----------7-------------------------------|
B|-5--------5--------3-------\10---------------------------------|
G|-4--------4--------4-------------9b11r9p7--7--9-7-7/9----------|
D|-----------------------------------------h9--------------------|
A|---------------------------------------------------------------|
E|---------------------------------------------------------------|

e|---------------12--------15------------------------------------|
B|---------------12--------12------------------------------------|
G|---------------12--------12------------------------------------|
D|---------------------------------------------------------------|
A|---------------------------------------------------------------|
E|---------------------------------------------------------------|

1:00
e|----------------------|
B|----------------------|
G|----------------------|
D|---7-8-9--------------|
A|-5-------7-9\-5--5--5-|
E|----------------------|

1:35
e|----------------------|
B|-10-11-12-------------|
G|----------9-9/11--7~--|
D|----------------------|
A|----------------------|
E|----------------------|

1:45
e|-4--------3--------2-----------7-------------------------------|
B|-5--------5--------3-------\10---------------------------------|
G|-4--------4--------4-------------9b11r9p7--7--9-7-7/9~---------|
D|-----------------------------------------h9--------------------|
A|---------------------------------------------------------------|
E|---------------------------------------------------------------|

e|---------------12--------15------------------------------------|
B|---------------12--------12---------15-------------------------|
G|---------------12--------12---------14-------------------------|
D|------------------------------------12-------------------------|
A|---------------------------------------------------------------|
E|---------------------------------------------------------------|

2:09
e|-4--------3--------2-------------------------------------------|
B|-5--------5--------3--------12-10/12---------------------------|
G|-4--------4--------4------------------11-----------------------|
D|------------------------------------------12--12/14------------|
A|---------------------------------------------------------------|
E|---------------------------------------------------------------|

e|---------------12--------15------------------------------------|
B|---------------12--------12-------15---------------------------|
G|---------------12--------12-------12---------------------------|
D|----------------------------------12---------------------------|
A|---------------------------------------------------------------|
E|---------------------------------------------------------------|

e|-0-----0----x----------------|
B|-0--3--0--3-x----------------|
G|-0--2--0--2-x----------------|
D|-2--0--2--0-x----------------|
A|-----------------------------|
E|-----------------------------|

Добавлено: 19.06.2016
Вам также может быть интересно:
Другие материалы по этой песне:
  • Аккорды и текст

Страница создана 19.06.2016
http://primanota.ru/banda-mais-bonita-da-cidade/que-isso-fique-entre-nos-chords.htm
Привет, Гость.
Предлагаем пройти революционный курс по гитаре.
Подарок от PrimaNota.Ru, забирай!