PrimaNota.ru - самый крупный в мире бесплатный архив песенных текстов, аккордов, табулатур и нот


Band Of Skulls - Sweet Sour - таба, видео

Регистрация Запомнить меня
Войти через:  Facebook Google Twitter Vk Yandex Mail.ru

Band Of Skulls - Sweet Sour - таба, видео

Печатать
Просмотров: 219
Уроки эстрадного вокала в Санкт-Петербурге
Author/Artist: Band Of Skulls
Title: Sweet Sour

h hammer on
p pull off
P pluck
/ slide up
\ slide down

Tuning (C# A D F# A D)

-------|----------------------------------------------------------------------|
-------|----------------------------------------------------------------------|
-------|----------------------------------------------------------------------|
-------|----------------------------------------------------------------------|
-------|-------15h17p15h17p15h17p15--------14h15p14h15p14h15p14-------12h14p--|
-------|----------------------------------------------------------------------|
        Intro/Verse/Chorus

-----------------------|-----------------------|----------|
-----------------------|-----------------------|----------|
-----------------------|-----------------------|----------|
-----------------------|-----------------------|----------|
-12h14p12h14p12--------|-10h12p10h12p10h12p10--|----------|
-----------------------|-----------------------|-6/-------|
                1st end                         2nd end Bass

-------|-----------------------------|
-------|-----------------------------|
-------|-----------------------------|
-------|-x--x------------------------|
-------|-5--5--17h19p17h19p17h19p17--|
-------|-6--6------------------------|
        Verse Pt.2 repeat

-------|-----------------------|
-------|-----------------------|
-------|-----------------------|
-------|--x--x--------17-18/19-|
-------|--5--5--20-21----------|
-------|--6--6--19-------------|
        Verse   P   Pt. 2 End       

-------|---------|--|---------------------------------------------------------|
-------|---------|--|---------------------------------------------------------|
-------|---------|--|---------------------------------------------------------|
-------|-x-x-x-x-|4x|-x-------------------------------------------------------|
-------|-7-7-7-7-|--|-5\------------------------------------------------------|
-------|-8-8-8-8-|--|-8\------------------------------------------------------|
        Chorus End       "Sour by the minute but your sweeter by the hour"

-------|-------------------------------------|--|---------------------------------|
-------|-------------------------------------|--|---------------------------------|
-------|-------------------------------------|--|---------------------------------|
-------|-18b19--15h17------------------------|--|---------------------------------|
-------|--------------20--19h20-19--17h19-17-|--|-\-------------------------------|
-------|-------------------------------------|--|---------------------------------|
        Interlude

-------|----------------|--|---------------|-----|--------|-------------------|
-------|----------------|--|---------------|-----|--------|-------------------|
-------|----------------|--|---------------|-----|--------|-------------------|
-------|-x--x-x--19-17\-|--|-x--x-x-x--x-x-|-----|--------|-x-----------------|
-------|-7--7-7---------|--|-7--7-7-7--7-7-|-----|--------|-5-----------------|
-------|-8--8-8/--------|--|-8--8-8-8--8-8-|-----|--------|-5-----------------|
        Bridge                               Solo  Chorus   End
Добавлено: 18.06.2013
Другие материалы по этой песне:
  • Аккорды и текст

Страница создана 18.06.2013
http://primanota.ru/band-of-skulls/sweet-sour-chords.htm
Привет, Гость.
Предлагаем пройти революционный курс по гитаре.
Подарок от PrimaNota.Ru, забирай!