PrimaNota.ru - самый крупный в мире бесплатный архив песенных текстов, аккордов, табулатур и нот


Banai - Blus Cnaani - таба, видео

Регистрация Запомнить меня
Войти через:  Facebook Google Twitter Vk Yandex Mail.ru

Banai - Blus Cnaani - таба, видео

Печатать
Просмотров: 81
BLUS CNAA'NY
By Ehud Banai
 
 
 

Arranged by Yoav Geier
 
Guitar Tune (E A D G B E)
 

 
 
   Intro: Keep your finger on D on the 2nd string.
 
|--------------------------------------------------------------------|
|-3-3-3-3-3-----------------------3-3-3-3---------------------3---3--|
|-0h2-2-2-2-0-0-0-0-0-------------0-0-0-0-2p0-----------------2---3--|
|-----------3---------2-0---0-2-3-------------3-2p0---0-0-0-0-0-0-0--|
|-------------------------3-------------------------3----------------|
|--------------------------------------------------------------------|
 

 
|-----------------------------------------------|----|
|---3-3-2-------------3-3-3-3-------------------|----|
|---2h3p2-0---0-------0-0-0-0-2p0---------------|----|
|-0---------3---0-2-3-------------3-2p0---0-0-0-|----|
|---------------------------------------3-------|----|
|-----------------------------------------------|----|
 
 
 

   Verse:
 
|-0-------1-----------------------0h1p0h1p0---1--||----|
|-3-3---3-3-3-3-3-3-3-------------3-3-3-3-3---3-o||----|
|-3---3---2-0h2-2-2-2-------------2-2-2-2-2-2-2--||----|
|---------------------0-3-2-----0----------------||----|
|---------------------------3-3-----------------o||----|
|------------------------------------------------||----|
 
 
 

   Chorus: Strum the first part and pick the second.
 

 Am-Em-Fmaj7-G   Fmaj7     Fmaj7     G
            3x
|-0-0-0-3---||---0-0-0-0---0-0-0-0-3-|----|
|-1-0-1-0--o||---1-1-1-1---1-1-1-1-0-|----|
|-2-0-2-0---||---2-2-2-2---2-2-2-2-0-|----|
|-2-2-3-0---||-3---------3---------0-|----|
|-0-2---2--o||---------------------2-|----|
|-0-0---3---||---------------------3-|----|
 
 
 
 
 
   Interlude & Outro: Note the change in speed.
 
    N.C
 
|----------------------------------------------------------------------|
|---3-3-3-3---3-3-3-3-------------3-3-------3-3-3-3--------------------|
|---0-0-0-0---0-0-0-0-------------0-0-------0-0-0-0-2p0----------------|
|-0---------3---------2h3p2-0---0-----0-2-3-------------3-2p0---0-0-0--|
|-----------------------------3-------------------------------3--------|
|----------------------------------------------------------------------|
 

 
|---------------------------------------------------------------|----|
|---3-3-3---3-3-3---------------------3-3-3-3-------------------|----|
|---2-2-2---3-3-3---2h3p2-0---0-------0-0-0-0-2p0---------------|----|
|-0-------0-------0---------3---0-2-3-------------3-2p0---0-0-0-|----|
|-------------------------------------------------------3-------|----|
|---------------------------------------------------------------|----|
 

This is basically my first Tab ever yet it's the only
correct one on the net for this song. Before you begin
jamming this one I seriously advise you to listen very
Carefully to the song as recorded live since every note
is played tremendously fast and in an alternating speed
and tempo.
 
Good luck,
 

Yoav - cicatrixos@hotmail.com
 
 
 
 

     
Добавлено: 20.07.2013
Другие материалы по этой песне:
  • Аккорды и текст

Страница создана 20.07.2013
http://primanota.ru/banai/blus-cnaani-chords.htm
Привет, Гость.
Предлагаем пройти революционный курс по гитаре.
Подарок от PrimaNota.Ru, забирай!