PrimaNota.ru - самый крупный в мире бесплатный архив песенных текстов, аккордов, табулатур и нот


Balzac - Nowhere 13 - текст песни, таба, видео

Регистрация Запомнить меня
Войти через:  Facebook Google Twitter Vk Yandex Mail.ru

Balzac - Nowhere 13 - текст песни, таба, видео

Печатать
Просмотров: 138
Nowhere #13
tabbed by: Mike Cortez
me again here's another one for the balzac scene...(the Band)

FIG 1:
E ------0------0------0------0------0------0---5----|
B ----1------3------0------1------1------3-----5----|
G --2------4------1------2------2------4-------5----|


LEAD (it is repeated quickly...play over opening verse)


E ---3---3---5-----0--0------1---3---1---3---3---3---3-----------|
B ---5---3---5---0------0----1---5---1---3---3---3---3-----------|
G ---5---4---5------------0--2---5---2---5---4---5---4-----------|


C G A Em F C F G (X2)@


F G E A G F G A (play FIG 1 over this section)@
F G E A G F G@


C G A Em F C F G (X2)@


F G E A G F G A (play FIG 1 over this section)@
G F G E A G F G@


C B A G F G (X4)
A G


C G A Em F C F G (X2) (with lead)


F G E A G F G A (play FIG 1 over this section)
G F G E A G F G


C B A G F G (X4)
A G F G


C G A Em F G (X2) (staccato)
A G F G


C G A Em F C F G (X2)
C G A Em F C F G (staccato)
C G A Em F C F G (repeat as song fades)

intro:on the(5-3-3---------------------| do some harmonics it might sound cool^-^)
e:-------------------------------------|
b:-------------------------------------|
g:555---------222-----555--------------|
d:555-555-777-222-333-555-333-555------|
a:333-555-777-000-333-333-333-555------|
E:----333-555-----111-----111-333------|(x2)
verse:
e:------------------------------------|---------------------|
b:------------------------------------|---------------------|
g:---------999------------------------|---------999---------|
d:-333-555-999-777-555-333-555-777----|-333-555-999-777-555-|
a:-333-555-777-777-555-333-555-777----|-333-555-777-777-555-|
E:-111-333-----555-333-111-333-555----|-111-333-----555-333-|
then this again....
verse:
e:-----------------------------------|
b:-----------------------------------|
g:-555---------222-----555-----------|
d:-555-555-777-222-333-555-333-555---|
a:-333-555-777-000-333-333-333-555---|
e:-----333-555-----111-----111-333---|(x2)

e:------------------------------------|---------------------|
b:------------------------------------|---------------------|
g:---------999------------------------|---------999---------|
d:-333-555-999-777-555-333-555-777----|-333-555-999-777-555-|
a:-333-555-777-777-555-333-555-777----|-333-555-777-777-555-|
e:-111-333-----555-333-111-333-555----|-111-333-----555-333-|
then agian the intro:
e:------------------------------------|
b:------------------------------------|
g:-555---------222-----555------------|
d:-555-555-777-222-333-555-333-555----|
a:-333-555-777-000-333-333-333-555----|
e:-----333-555-----111-----111-333----|(x2)

outro:
e:-------------------------------------|
b:-------------------------------------|
g:-555---------222-----555-------------|
d:-555-555-777-222-333-555-333-555-----|
a:-333-555-777-000-333-333-333-555-----|
e:-----333-555-----111-----111-333-----|

that's it for now uh....you can figure okies:
thank you very much!!!!
Добавлено: 15.07.2012
Другие материалы по этой песне:
  • Аккорды и текст

Страница создана 22.06.2012
http://primanota.ru/balzac/nowhere-13-chords.htm
Привет, Гость.
Предлагаем пройти революционный курс по гитаре.
Подарок от PrimaNota.Ru, забирай!