PrimaNota.ru - самый крупный в мире бесплатный архив песенных текстов, аккордов, табулатур и нот


The Baltic - San Francisco - таба, видео

Регистрация Запомнить меня
Войти через:  Facebook Google Twitter Vk Yandex Mail.ru

The Baltic - San Francisco - таба, видео

Печатать
Просмотров: 97
-------------------------------------------------------------------------------
                             SONG NAME - Band Name
-------------------------------------------------------------------------------
Tabbed by:Adam Dankowski
E-mail:

Tuning: Standard


SONG STRUCTURE:
Intro
Verse
Chorus
Intro repeat
Verse
Chorus
Outro

(The classic structure)



INTRO
e|---------------------------------------------------------------------------|
B|-1515-13-----------1515-13-------------------------------------------------|
G|---------14-12-14----------14-12-14-12-10--1010-12-14-12-10----10-1214-----|
D|------------------------------------------------------------12-------------|
A|---------------------------------------------------------------------------|
E|---------------------------------------------------------------------------|

e|---------------------------------------------------------------------------|
B|---------------------------------------------------------------------------|
G|-7107-7107--7---7----------------------------------------------------------|
D|----------10--10-107-5-3--33-5-7-5-3---3-57--------------------------------|
A|-------------------------------------5-------------------------------------|
E|---------------------------------------------------------------------------|


VERSE 

Repeat intro when Dankowski starts singing verse I.

 
CHORUS

e|---------------------------------------------------------------------------|
B|----------------------------------------10-8-----8-8-8--10-8--8---------10-|
G|--------------79-10--10101010-7-7-77-10------1010-----10----10-7--7-7-10---|
D|-7---7810---10-------------------------------------------------------------|
A|---------------------------------------------------------------------------|
E|---------------------------------------------------------------------------|

e|---------------------------------------------------------------------------|
B|-8----8-10-8----8----------------------------------------------------------|
G|--1010-------10---10-------------------------------------------------------|
D|---------------------------------------------------------------------------|
A|---------------------------------------------------------------------------|
E|---------------------------------------------------------------------------|

INTRO Repeat

VERSE

CHORUS

OUTRO

When Kaplan is playing his bass line by himself, play this...
e|---------------------8---6-------------------------------------------------|
B|-----------10----8----------10----8----------------------------------------|
G|--10---7-------------------------------------------------------------------|
D|---------------------------------------------------------------------------|
A|---------------------------------------------------------------------------|
E|---------------------------------------------------------------------------|
 
Then once the whole band comes in just play the intro twice. 

************************************
Добавлено: 14.08.2015
Другие материалы по этой песне:
  • Аккорды и текст

Страница создана 14.08.2015
http://primanota.ru/baltic/san-francisco-chords.htm
Привет, Гость.
Предлагаем пройти революционный курс по гитаре.
Подарок от PrimaNota.Ru, забирай!